Song name
# A B C D E F G H I J K L M N O P Q R S T U V W X Y Z

Hillsong United - With Everything tab

Guitar 1
FAST PICKING (TRILL) Intro/Verse/Ending ("With everything, with everything")
---------------------------------------------------------------------------|
12-12-12-12-12-12-14-14-16-16-16-16-17-17-16-16-16-14-12-12-12-12-14-14-12-|
---------------------------------------------------------------------------|
---------------------------------------------------------------------------|
---------------------------------------------------------------------------|
---------------------------------------------------------------------------|

Guitar 2
Intro
 B      B       F#      G#      E
--------------------------------------------------------------------|
-----------------------------------0--------------------------------|
----8------8-------3-------4------9-9-9-----------------------------|
---9-9-9--9-9-9---4-4-4---6-6-6--9---9------------------------------|
--9---9--9---9---4---4---6---6--7-----------------------------------|
-7------7-------2-------4-------------------------------------------|

Pre-Chorus 2nd Time through
------------------------7--------------------------7----------------|
-12-11-9-7-9-5-2-4--4-5-----12-11-9-7-9-5-2-4--4-5------------------|
--------------------------------------------------------------------|
--------------------------------------------------------------------|
--------------------------------------------------------------------|
--------------------------------------------------------------------|

Piano Part on Guitar
E        G#      B         F#
--------------------------------------------------|
-7-7-7-9-9-9-9-7-4-4-4-7-7-2-2-5-5-4-4------------|
0-0-0-0-0-0-0-0-0-0-0-0-0-0-0-0-0-0-0-------------|
--------------------------------------------------|
--------------------------------------------------|
--------------------------------------------------|
Tap to rate this tab
 
# A B C D E F G H I J K L M N O P Q R S T U V W X Y Z