Song name
# A B C D E F G H I J K L M N O P Q R S T U V W X Y Z

Hillsong United - My Future Decided tab

/ = Slide Up
\ = Slide Down
~ = Vibrato

Intro:

e:--------------------------------------------------------------|
B:--------------------------------------------------------------|
G:--------------------------------------------------------------|
D:--------------------------------------------------------------|
A:--4-4-----------4-4---5-5-4-4-0-0-0-0-0-0-0-0-2-2-2-2-2-2-2-2-|
E:-----2-2-2-2-2-2---2-2----------------------------------------|

e:--------------------------------------------------------------|
B:--------------------------------------------------------------|
G:--------------------------------------------------------------|
D:---------------------------------------------/7-7-7-7-7-7-7-7-|
A:--4-4-----------4-4---5-5-4-4-0-0-0-0-0-0-0-0-----------------|
E:-----2-2-2-2-2-2---2-2----------------------------------------|


Solo:

e:-------------------17-17-16-16-14-14-------------------------------------|
B:--17--17--17--17---------------------17-17-14-14-14-14-14-14-14-14-14-14-|
G:----18--18--18--18-------------------------------------------------------|
D:-------------------------------------------------------------------------|
A:-------------------------------------------------------------------------|
E:-------------------------------------------------------------------------|

e:---------------------------------------17-17-16-16-14-14-------------------|
B:--14-14-14-14-14-14--17--17--17--17----------------------17-17-14-14-14-14-|
G:-----------------------18--18--18--18--------------------------------------|
D:---------------------------------------------------------------------------|
A:---------------------------------------------------------------------------|
E:---------------------------------------------------------------------------|

e:-------------------------------------------|
B:--14-14-14-14-14-14-14-14-12-12-12-12-10~~-|
G:-------------------------------------------|
D:-------------------------------------------|
A:-------------------------------------------|
E:-------------------------------------------|

Thanks! I hope this helped!

A video will be posted soon on youtube. go to profile to see link.
Tap to rate this tab
# A B C D E F G H I J K L M N O P Q R S T U V W X Y Z