Song name
# A B C D E F G H I J K L M N O P Q R S T U V W X Y Z

Hillsong United - Hosanna tab

This song uses a lot of delay,I use an analog delay.but any delay will work.
Tuning standard E A D G B e

       / = slide up
       \ = slide down
       p = pull off
       h = hammer on
       
Intro:
|----4--------4------------------------------------------------------------|
|---5------5h7----4----------4---------5-----5--------4--------4-----------|
|--6------6------4--------4h6---------6--------------4------4h6------------|
|---------------6--------6---------6/7------7-------6------6---------------|
|--------------------------------------------------------------------------|
|--------------------------------------------------------------------------|



|----4--------4-----------------------------7---------------9------12------|
|---5------5h7----4--------4----------5--------------7---------------------|
|--6------6------4------4h6----------6--------------8----------------------|
|---------------6------6----------6/7------7-----7/9------9----------------|
|--------------------------------------------------------------------------|
|--------------------------------------------------------------------------|


Verse1:
|------------------------------------------------7-7--5-5---4----12--------|
|--------4-----2-----2-----4---------4---4--4------------------------------|
|-------5-----2-----2-----4---------5--------------------------------------|
|------6-----4-----4-----4---------6----6--6---6---------------------------|
|--------------------------------------------------------------------------|
|--------------------------------------------------------------------------|


|--------------------------------------------------------------------------|
|------4------2------2------4------4---------------------------------------|
|-----5------2------2------4------4----------------------------------------|
|----6------4------4------4------4-----------------------------------------|
|--------------------------------------------------------------------------|
|--------------------------------------------------------------------------|

    I understand this Chorus is a little hard and different but it
 just takes a while to get used to and I think it sounds a little better.

Chorus1:
|-------0------0-------0------0-----0-----0------0-------0-----------------|
|------0-0----0-0-----0-0----0-0---0-0---0-0----0-0-----0-0----------------|
|--------------------------------------------------------------------------|
|--------------------------------------------------------------------------|
|--------------------------------------------------------------------------|
|-----4------5-------7-----9-----5-----9-------7-------7-------------------|


|------0------0------0-------0--------0------0-------0------0--------------|
|-----0-0----0-0----0-0-----0-0------0-0----0-0-----0-0----0-0-------------|
|--------------------------------------------------------------------------|
|--------------------------------------------------------------------------|
|--------------------------------------------------------------------------|
|---4------5------7-------9-------5-------7-------0------0-----------------|


Outro:
|----------4------4-------4-----7-7---5-5--4-------------------------------|
|-------5------------------------------------------------------------------|
|----6--------6------6-------6---------------------------------------------|
|--------------------------------------------------------------------------|
|--------------------------------------------------------------------------|
|--------------------------------------------------------------------------|


          Verse two is the same as verse one besides the extra part
          the guitar does in that verse.The Chorus is pretty much 
          the same chords just simplified with a bit of distortion.

Chorus2:
|--------------------------------------------------------------------------|
|--------------------------------------------------------------------------|
|--------------------------------------------------------------------------|
|-----------------7-7-7-7-7----9-9-9-9-9---11-11-11-11-11----7-7-7-7-7-----|
|----6-6-6-6-6----7-7-7-7-7----9-9-9-9-9---11-11-11-11-11----7-7-7-7-7-----|
|----4-4-4-4-4----5-5-5-5-5----7-7-7-7-7----9--9--9--9--9----5-5-5-5-5-----|

                   this is for the end of|     And this is for the end of
                    the first time around|     the second time around       
                    the Chorus           |     the Chorus    
|-------------------|--------------------|---------------------------------|
|-------------(2x)--|--------------------|---------------------------------|
|-------------------|-----(2x)-----------|-----1-1-1-1-1-1-1-1-1-1---------|
|---11-11-11-11-11--|9-9-9-9-9-----------|-----2-2-2-2-2-2-2-2-2-2---------|
|---11-11-11-11-11--|9-9-9-9-9-----------|-----2-2-2-2-2-2-2-2-2-2---------|
|----9--9--9--9--9--|7-7-7-7-7-----------|-----0-0-0-0-0-0-0-0-0-0---------|


Solo:
|--------------------------------------------------------------------------|
|-12-12-12-12-12--9-7-9-12-12-12-12-12-9-7-9-9/10-10-10-10-10-9-7-5-4-4----|
|--------------------------------------------------------------------------|
|--------------------------------------------------------------------------|
|--------------------------------------------------------------------------|
|--------------------------------------------------------------------------|


|-------------------------------------------------------------11--11--11-14|
|--5-5-5-7-7-7-12-12h14-12-12-9-7-9-12-12-12h14-12-12-9-7-9-10--10--10--10-|
|--------------------------------------------------------------------------|
|--------------------------------------------------------------------------|
|--------------------------------------------------------------------------|
|--------------------------------------------------------------------------|


And the Chords to the Bridge is A-B-E-C#m-A-B-C#m-A-B-E-C#m-A-B-E
Tap to rate this tab
 
# A B C D E F G H I J K L M N O P Q R S T U V W X Y Z