Song name
# A B C D E F G H I J K L M N O P Q R S T U V W X Y Z

Hillsong United - Solution tab

HILLSONG UNITED:
Solution

TUNING: STANDARD(EADGBe)
To play the background part to this look for the CHORDS to this song (obviously)

e|----------------|----------------|
B|------5-5-5-4-5-|------4-4-4-----|
G|----------------|------------6-4-| Play this x8
D|6-4-6-----------|4-4-4-----------|
A|----------------|----------------|
E|----------------|----------------|

 
Pre-Chorus  
"Hey now, Fill our hearts..."

e||:---------14-14-14-14-14|----------14-14-14-14-14|
B||:12-11-12---------------|-12-11-12---------------|
G||:-----------------------|------------------------|
D||:-----------------------|------------------------|
A||:-----------------------|------------------------|
E||:-----------------------|------------------------|

e|---------14-14-14-14-14|-12-12-11-11------------:||
B|-12-11-12--------------|-------------14-14-11-11:||
G|-----------------------|------------------------:|| Repeat
D|-----------------------|------------------------:||
A|-----------------------|------------------------:||
E|-----------------------|------------------------:||


e|----------------|----------------|
B|------5-5-5-4-5-|------4-4-4-----|
G|----------------|------------6-4-| Repeat x2
D|6-4-6-----------|4-4-4-----------|
A|----------------|----------------|
E|----------------|----------------|

Pre-Chorus  
"Hey now, Fill our hearts..."

e||:---------14-14-14-14-14|----------14-14-14-14-14|
B||:12-11-12---------------|-12-11-12---------------|
G||:-----------------------|------------------------|
D||:-----------------------|------------------------|
A||:-----------------------|------------------------|
E||:-----------------------|------------------------|

e|---------14-14-14-14-14|-12-12-11-11------------:||
B|-12-11-12--------------|-------------14-14-11-11:||
G|-----------------------|------------------------:|| Repeat
D|-----------------------|------------------------:||
A|-----------------------|------------------------:||
E|-----------------------|------------------------:||

After Chorus 1: 

e|----------------|----------------|
B|------5-5-5-4-5-|------4-4-4-----|
G|----------------|------------6-4-| Repeat x2
D|6-4-6-----------|4-4-4-----------|
A|----------------|----------------|
E|----------------|----------------|

Verse 3:
"Higher than our circumstance"
(Thrill = //)
e|-------------|-------------|    e|----------|---------|
B|-------------|-------------|    B|----------|---------|
G|-------------|-------------|    G|----------|---------|
D|-------------|-------------| OR D|-------2//|------2//|
A|-------------|-------------|    A|-2//------|2//------|
E|-7//-2//-12//|-7//-2//-12//|    E|----2//---|---2//---|


Pre-Chorus:
"Hey now, Fill our hearts with your compassion..."
 
e||:---------14-14-14-14-14|----------14-14-14-14-14|
B||:12-11-12---------------|-12-11-12---------------|
G||:-----------------------|------------------------|
D||:-----------------------|------------------------|
A||:-----------------------|------------------------|
E||:-----------------------|------------------------|

e|---------14-14-14-14-14|-12-12-11-11------------:||
B|-12-11-12--------------|-------------14-14-11-11:||
G|-----------------------|------------------------:|| Repeat
D|-----------------------|------------------------:||
A|-----------------------|------------------------:||
E|-----------------------|------------------------:||

Chorus 1: 

Solo
e|---------------------------------------|
B|--------------------11-11-11-9-9-9---9-|
G|-8-8-8-11-11-11-8-11---------------11--|
D|---------------------------------------|
A|---------------------------------------|
E|---------------------------------------|

e|----------------------------------------------|
B|--------------------14-14-14-12-12-12-11-11-11|
G|-8-8-8-11-11-11-8-11--------------------------|
D|----------------------------------------------|
A|----------------------------------------------|
E|----------------------------------------------|

e|---------------------------------------|
B|--------------------11-11-11-9-9-9---9-|
G|-8-8-8-11-11-11-8-11---------------11--|
D|---------------------------------------|
A|---------------------------------------|
E|---------------------------------------|

e|---------------------------14-14-14-12-12-12-16-18-16-|
B|-14-14-14-12-12-12-11-11-11---------------------------|
G|------------------------------------------------------|
D|------------------------------------------------------|
A|------------------------------------------------------|
E|------------------------------------------------------|


Bridge:

"Only you can take the widow's cry"

e|-11//-12//-11//-9//-|
B|--------------------|
G|--------------------| Repeat Until you get to "We will say"
D|--------------------|
A|--------------------|
E|--------------------|




****OUTRO****
NOTE THERE IS ALSO A BACKGROUND PART TO THIS
=========================================================
SOLO               
e|---------------------------------------|
B|--------------------11-11-11-9-9-9---9-|
G|-8-8-8-11-11-11-8-11---------------11--|
D|---------------------------------------|
A|---------------------------------------|
E|---------------------------------------|

                                               
e|----------------------------------------------|
B|--------------------14-14-14-12-12-12-11-11-11|
G|-8-8-8-11-11-11-8-11--------------------------|
D|----------------------------------------------|
A|----------------------------------------------|
E|----------------------------------------------|

                                             
e|---------------------------------------|
B|--------------------11-11-11-9-9-9---9-|
G|-8-8-8-11-11-11-8-11---------------11--|
D|---------------------------------------|
A|---------------------------------------|
E|---------------------------------------|

                                                   
e|---------------------------14-14-14-12-12-12-16-18-16-|(ENDING)
B|-14-14-14-12-12-12-11-11-11---------------------------|
G|------------------------------------------------------|
D|------------------------------------------------------|
A|------------------------------------------------------|
E|------------------------------------------------------|

=========================================================

CLOSING:
e|------------------------------|
B|-9h11p9h11p9h11p9h11p9h11p-9b-|
G|------------------------------|
D|------------------------------|
A|------------------------------|
E|------------------------------|
Tap to rate this tab
 
# A B C D E F G H I J K L M N O P Q R S T U V W X Y Z