Song name
# A B C D E F G H I J K L M N O P Q R S T U V W X Y Z

Hillsong United - No Reason To Hide tab

This is my first tab. Its not 100% accurate and may be confusing. sorry, i watched a guy
youtube play it. kennygoweizhi to be exact. I have him to thank for this tab. if you
any mistakes or corrections that may be needed to be made, email me at 
Thanks!


No Reason To Hide- Hillsong

Intro + Verse (1st half):
 Guitar 1
   e---------------------------------------------|
   b-----------11-13----------11-13--------------|
   g--13-13-13-------13-13-13--------------------|
   d---------------------------------------------|
   a---------------------------------------------|
   E---------------------------------------------|
 Guitar 2
   e------------------------------------------------|
   b------------------------------------------------|
   g--13-(X6)-12-(X6)-8-(X8)-13-(X6)-12-(X6)-6-(X8)-|
   d--13-(X6)-12-(X6)-8-(X8)-13-(X6)-12-(X6)-6-(X8)-|
   a--11-(X6)-10-(X6)-6-(X8)-11-(X6)-10-(X6)-4-(X8)-|
   E------------------------------------------------|

Chorus:
  Guitar 1
   e---------------------------------------------|
   b-----------------11-11-11-11-13-13-13-13-----|
   g--13-13-13-13-13-----------------------------|
   d---------------------------------------------|
   a---------------------------------------------|
   E---------------------------------------------|
  Guitar 2
   e------------------------------------------------|
   b------------------------------------------------|
   g----------6-(X16)---------------6-(X16)---------|
   d--6-(X16)-6-(X16)-4-(X8)-6-(X8)-6-(X16)---------|
   a--6-(X16)-4-(X16)-4-(X8)-6-(X8)-4-(X16)---------|
   E--4-(X16)---------2-(X8)-4-(X8)-----------------|


Post Chorus:
   e----------------------|
   b----------------------|
   g--13(X6)-13(X6)-15(X8)|
   d--x-(X6)-x-(X6)-x-(X8)| (X3)
   a--11(X6)-15(X6)-17(X8)|
   E----------------------|
                          -
Second Verse:
  Guitar 1
    e---------------------------------------------|
    b---------------------------------------------|
    g----13-13-13-13-12-12-12-15-15-15-17-17-17---|
    d---------------------------------------------|
    a---------------------------------------------|
    E---------------------------------------------|
  Guitar 2 (comes in at 2nd half):
   e------------------------------------------------|
   b------------------------------------------------|
   g--13-(X6)-12-(X6)-8-(X8)-13-(X6)-12-(X6)-6-(X8)-|
   d--13-(X6)-12-(X6)-8-(X8)-13-(X6)-12-(X6)-6-(X8)-|
   a--11-(X6)-10-(X6)-6-(X8)-11-(X6)-10-(X6)-4-(X8)-|
   E------------------------------------------------|

Chorus:
  Guitar 1
   e---------------------------------------------|
   b-----------------11-11-11-11-13-13-13-13-----|
   g--13-13-13-13-13-----------------------------|
   d---------------------------------------------|
   a---------------------------------------------|
   E---------------------------------------------|

  Guitar 2
   e------------------------------------------------|
   b------------------------------------------------|
   g----------6-(X16)---------------6-(X16)---------|
   d--6-(X16)-6-(X16)-4-(X8)-6-(X8)-6-(X16)---------|
   a--6-(X16)-4-(X16)-4-(X8)-6-(X8)-4-(X16)---------|
   E--4-(X16)---------2-(X8)-4-(X8)-----------------|

Bridge
   Guitar 1&2
   e------------------------------------------------------------------------|
   b--------------------------------------------------------------13-14-16--|
   g13--13--13--17~~-13--13--13--17~~-13--13--13--17~~-13--13--13-----------|
   dx---x---x---x----x---x---x---x----x---x---x---x----x---x---x------------|
   a11--11--11--15~~-11--11--11--15~~-11--11--11--15~~-11--11--11-----------|
   E------------------------------------------------------------------------|

e-------------------------------------------------------------------|
b-------------------------------------------------------------21-21-|
g13-13-13-13-13-13-13-13-13-13-13-13--------------------------------|
dx--x--x--x--x--x--x--x--x--x--x--x--14br14br16br16br19br19br-------|
a11-11-11-11-11-11-11-11-11-11-11-11--------------------------------|
E-------------------------------------------------------------------|

Nothing compares to You,
Nothing could ever separate us now
Your love is ours

After second time of this verse (^)
 Guitars 1+2
   ------------------------------------------------------------|
   ------------------------------------------------------------|
   13s11~~-11s10~~-10s6~~--13-(x16)-15-(x16)-15-(x16)-18(x8)~~-|
   x--x----x--x----x--x----x--------x--------x--x--------------|
   11s9-~~-9-s8-~~-8-s4~~--11-(x16)-13-(x16)-17-(x16)-16(x8)~~-|
   ------------------------------------------------------------|

Chorus:
  Guitar 1
   e---------------------------------------------|
   b-----------------11-11-11-11-13-13-13-13-----|
   g--13-13-13-13-13-----------------------------|
   d---------------------------------------------|
   a---------------------------------------------|
   E---------------------------------------------|

 Guitar 2
   e------------------------------------------------|
   b------------------------------------------------|
   g----------6-(X16)---------------6-(X16)---------|
   d--6-(X16)-6-(X16)-4-(X8)-6-(X8)-6-(X16)---------|
   a--6-(X16)-4-(X16)-4-(X8)-6-(X8)-4-(X16)---------|
   E--4-(X16)---------2-(X8)-4-(X8)-----------------|

Ending:

 Nothing compares to You,
 Nothing could ever separate us now
 Your love is ours

 After second time of this verse (^)
   Guitars 1+2
   ------------------------------------------------------------|
   ------------------------------------------------------------|
   13s11~~-11s10~~-10s6~~--13-(x16)-15-(x16)-15-(x16)-18(x8)~~-|
   x--x----x--x----x--x----x--------x--------x--x--------------|
   11s9-~~-9-s8-~~-8-s4~~--11-(x16)-13-(x16)-17-(x16)-16(x8)~~-|
   ------------------------------------------------------------|
Tap to rate this tab
# A B C D E F G H I J K L M N O P Q R S T U V W X Y Z