Hillsong United - Tell The World tab

b=Bend
/=slide
h=hammer on
p= pull off
~=hold note


Intro
e-----------------------------------------------------------------------------|
B----------7----7-7-6--------7------7-7-6-------7----7-7-6--------7-----7-7-6-|
G----------9b---7-7-6--------9b-----7-7-6-------9b---7-7-6--------9b----7-7-6-|
D-----------------------------------------------------------------------------|
A-----------------------------------------------------------------------------|
E-----------------------------------------------------------------------------|

e----------------------------------------------------------------------------|
B-----7~---------------------------------------------------------------------|
G-----9b~--------------------------------------------------------------------|
D----------------------------------------------------------------------------|
A----------------------------------------------------------------------------|
E----------------------------------------------------------------------------|


Verse
e----------------------------------------------------------------------------|
B----------------------------------------------------------------------------|
G-11-11-11-11-11-11-18-18-18--11-11-11-11-16-14-13-13-13-13----x2------------|
D----------------------------------------------------------------------------|
A-9--9--9--9--9--9--16-16-16--9--9--9--9--14-12-11-11-11-11----x2------------|
E----------------------------------------------------------------------------|


Pre-Chorus
e----------------------------------------------------------------------------|
B----------------------------------------------------------------------------|
G--------14--14--11--11--------------------------------------------x4--------|
D-11--11-----------------11--11--12--12--12--11--11--11------------x4--------|
A--------------------------------------------------------12--12----x4--------|
E----------------------------------------------------------------------------|


Chorus 1 (x2)
e----------------------------------------------------------------------------|
B----------------------------------------------------------------------------|
G---------------9--9--9--9-----------------7--7--7--7------------------------|
D--7--7--7--7---9--9--9--9---11-11-11-11---7--7--7--7------------------------|
A--7--7--7--7---7--7--7--7---9--9--9--9----5--5--5--5------------------------|
E--5--5--5--5----------------------------------------------------------------|


Replay Intro


Bridge
e----------------------------------------------------------------------------|
B----------------------------------------------------------------------------|
G----------------------------------------------------------------------------|
D----------------------------------------------------------------------------|
A--0--0-0-0-0---2-2-2-2-2-------------5-5-5-5-5------------------------------|
E---------------------------2-2-2-2-2----------------------------------------|

e----------------------------------------------------------------------------|
B----------------------------------------------------------------------------|
G----------14--14--11--11--11-11-11-11-11-11-11-11-11-11--x4-----------------|
D--11--11-------------------------------------------------x4-----------------|
A---------------------------------------------------------x4-----------------|
E----------------------------------------------------------------------------|


Outro
e----------------------------------------------------------------------------|
B----------------------------------------------------------------------------|
G--19--14-14-19-14-19-19-19-14-19-14-14-19-14-19-19-19-14-19~----------------|
D----------------------------------------------------------------------------|
A----------------------------------------------------------------------------|
E----------------------------------------------------------------------------|
Tap to rate this tab
 
# A B C D E F G H I J K L M N O P Q R S T U V W X Y Z