Song name
# A B C D E F G H I J K L M N O P Q R S T U V W X Y Z

Hillsong United - Break Free tab

----------------------------------------------------------------------------
			     SONG NAME - Break Free
----------------------------------------------------------------------------

Tabbed by:Zach
Email:zohara3946@gmail.com

Tuning:Standard

Intro
e|----------------------------------------------xxxx------------------------|
B|----------------------------------------------xxxx------------------------|
G|----------------------------------------------xxxx------------------------|
D|-------------------------------------4---4-6--xxxx---4---4-6--------------|
A|---------------------------------5-5---5------xxxx-5---5------------------|
E|-2-2-2-2-2-2-2-2-2-2-2-2-2-2-2-2--------------xxxx------------------------|

Verses
e|----------------------------------------------xxxx------------------------|
B|----------------------------------------------xxxx------------------------|
G|----------------------------------------------xxxx------------------------|
D|-------------------------------------4---4-6--xxxx---4---4-6--------------|
A|---------------------------------5-5---5------xxxx-5---5------------------|
E|-2-2-2-2-2-2-2-2-2-2-2-2-2-2-2-2--------------xxxx------------------------|

Pre chorus
e|--------------------------------------------------------------------------|
B|--------------------------------------------------------------------------|
G|--------------------------------------------------------------------------|
D|-------------------------------------4-4-6-6-4-4-6-6----------------------|
A|-------------------------------------5-5-5-5-5-5-5-5----------------------|
E|-2-2-2b-2-2b-2-2-2-2-2-2b-2-2b-2-2-2--------------------------------------|

Chorus
e|--------------------------------------------------------------------------|
B|--------------------------------------------------------------------------|
G|--------------------------------------------------------------------------|
D|-2-2-7-9-11---------------------------------------------------------------|
A|-0-2-5-7-9----------------------------------------------------------------|
E|--------------------------------------------------------------------------|

Bridge
e|--------------------------------------------------------------------------|
B|--------------------------------------------------------------------------|
G|--------------------------------------------------------------------------|
D|-----7--------------------------------------------------------------------|
A|-2-4-5--------------------------------------------------------------------|
E|-0-2----------------------------------------------------------------------|

Solo (Tremelo pick)
e|-77777777777777777777-99999999999999999999--------------------------------|
B|--------------------------------------------------------------------------|
G|--------------------------------------------------------------------------|
D|--------------------------------------------------------------------------|
A|--------------------------------------------------------------------------|
E|--------------------------------------------------------------------------|

Outro
e|--------------------------------------------------------------------------|
B|--------------------------------------------------------------------------|
G|--------------------------------------------------------------------------|
D|--------------------------------------------------------------------------|
A|--------------------------------------------------------------------------|
E|-2-2-2-2-2-2-2-2-2-2-2-2-2....--------------------------------------------|


************************************

| /   slide up
| \   slide down
| h   hammer-on
| p   pull-off
| ~   vibrato
| +   harmonic
| x   Mute note
| b   Bend
| pb  Pre-bend
| br  Bend release
| pbr Pre-bend release
| brb Bend release bend

************************************
Tap to rate this tab
 
# A B C D E F G H I J K L M N O P Q R S T U V W X Y Z