Song name
# A B C D E F G H I J K L M N O P Q R S T U V W X Y Z

Hillsong United - Lead Me To The Cross tab

----------------------------------------------------------------------------
			     Lead me to the cross  Hillsong United
----------------------------------------------------------------------------
Tabbed by: Christopher Sparks

Tuning: Standard tuning

e -------------------------------------------------------------------|
a -------------------------------------------------------------------|
d -------------------------------------------------------------------|
g ---11--12--11--12--------------------------------------------------|
b ----------------------12--14--12--14-------------------------------|
e ------------------------------------------14-----------------------|

e --------------------------------------------------------------------|
a --------------------------------------------------------------------|
d --------------------------------------------------------------------|
g ---11--12--11--12----------------------------------14--11-----------|
b ----------------------12--14--12--14----17----15--------------------|
e --------------------------------------------------------------------|

************************************

| /   slide up
| \   slide down
| h   hammer-on
| p   pull-off
| ~   vibrato
| +   harmonic
| x   Mute note
| b   Bend
| pb  Pre-bend
| br  Bend release
| pbr Pre-bend release
| brb Bend release bend

************************************
Tap to rate this tab
 
# A B C D E F G H I J K L M N O P Q R S T U V W X Y Z