Hillsong United - Yours Forever tab

Yours Forever - Hillsong

This is in the key of B, if you need it in the key of A just move all the notes down 2 frets.
This is a good example of the song if you to see it played:
http://www.youtube.com/watch?v=aaOBDdMu3Ss

Intro
e|---------------------------------------------------------------------|
B|---------------------------------------------------------------------|
G|---------------------------------------------------------------------|
D|-9-7-9---7---7--9-9-7-9----------7/99-7-9-----7---7--7/99-7-9--------|
A|-------7---9------------7-5-7-------------7-5---9------------7-5-7---|
E|------------------------------7------------------------------------7-|

Verse 1
e|---------------------------|
B|---------------------------|
G|---------------------------|
D|---------------------------| x4
A|-222222/555777555555444444-|
E|---------------------------|
Say his name within the darkest hour and
See his light illuminate our path
The road is narrow but our gaze is set
On the love of Christ until the very end

e|-------------------------------------|
B|-------------------------------------|
G|-------------------------------------|
D|-7/99-7-9-----7---7--7/99-7-9--------|
A|----------7-5---9------------7-5-7---|
E|-----------------------------------7-|

Verse 2
e|---------------------------|
B|---------------------------|
G|---------------------------|
D|---------------------------| x4
A|-222222/555777555555444444-|
E|---------------------------|
We walk in the truth that over came our sin
We're leavin' our lives and how we once had lived
Givin' our lives to see your name made known
Cause' the love of Christ is what the world needs most

Chorus
e|------------------|
B|------------------|
G|-------------7777-|
D|-7777777755559999-| x2
A|-9999999977779999-|
E|-999999997777-----|
So Lord, lead us in the ways of your love
To lead a broken world to your cross

e|----------------------------------|
B|----------------------------------|
G|---------55--7777------------7777-|
D|-77777777775599997777777755559999-|
A|-99999999777799999999999977779999-|
E|-99999999--77----999999997777-----|
Lead us in the ways of your love

e|--------------------------------------|
B|--------------------------------------|
G|--------------------------------------|
D|-----------------5-5-5-5---7/9-/7/6---| x2
A|-7-7-7-7-7-7-7-7-7-7-7-7-5-9/11/9/8-7-|
E|-9-9-9-9-9-9-9-9---------7----------9-|
We are yours forever, our lives won't be the same
We are yours forever, our eyes won't turn away
Yours forever

e|----------------------------------------|
B|----------------------------------------|
G|----------------------------------------|
D|-7--3/99-7-9-----7---7-7/99-7-9---------|
A|-9-----------7-5---9------------7-5-7---|
E|-9------------------------------------7-|

Verse 3
e|---------------------------|
B|---------------------------|
G|---------------------------|
D|---------------------------| x4
A|-222222/555777555555444444-|
E|---------------------------|
Singin' your praise until our lungs give out to
The hope of the world, the one that gave us life
Givin' our lives to see your name made known
Cause' the love of Christ is what the world needs most

Chorus
e|------------------|
B|------------------|
G|-------------7777-|
D|-7777777755559999-| x2
A|-9999999977779999-|
E|-999999997777-----|
So Lord, lead us in the ways of your love
To lead a broken world to your cross

e|----------------------------------|
B|----------------------------------|
G|---------55--7777------------7777-|
D|-77777777775599997777777755559999-|
A|-99999999777799999999999977779999-|
E|-99999999--77----999999997777-----|
Lead us in the ways of your love

e|--------------------------------------|
B|--------------------------------------|
G|--------------------------------------|
D|-----------------5-5-5-5---7/9-/7/6---| x2
A|-7-7-7-7-7-7-7-7-7-7-7-7-5-9/11/9/8-7-|
E|-9-9-9-9-9-9-9-9---------7----------9-|
We are yours forever, our lives won't be the same
We are yours forever, our eyes won't turn away

e|------------------------------------------------------|
B|------------------------------------------------------|
G|-----------------55555555------------5555555577777777-|
D|-777777777777777777777777555555557/3-xxxxxxxxxxxxxxxx-|
A|-999999999999999977777777777777779/5-7777777799999999-|
E|-9999999999999999--------777777779/5------------------|
We are yours forever, our lives won't be the same
Yours forever 
Our eyes won't turn away

Solo
e|-----------------------------------------------|
B|-----------------------------------------------|
G|-7-------7-------7-------9b11------------------|
D|-7h9p7h9-7h9p7h9-7h9p7h9------9999999999999999-|
A|------------------------------9999999999999999-|
E|------------------------------7777777777777777-|


e|-----------------------------------------------|
B|-77------77-----77-----------------------------|
G|---9p7-----9p7----9p7---10b12------------------|
D|------h9------h9-----h9-------9999999999999999-|
A|------------------------------9999999999999999-|
E|------------------------------7777777777777777-|

Bridge
e|-------------------------|
B|-------------------------|
G|-------7~-76-9~-99-11~/9-|
D|-9~-97-7~-76-9~-99-11~/9-|
A|-9~-97-5~-54-7~-77-9~-/7-|
E|-7~-75-------------------|
We're livin' in the one who gave
His life to see our sin erased
We know, we know
Our hope is never gonna fade away

e|--------------------------------------------------------------|
B|--------------------------------------------------------------|
G|--------------------------------------------------------------|
D|--------------------------------------------------------------|
A|--------------------------------------------------------------|
E|-7-7777-7777-77777777710-10101010-10101010-101010101010101010-|
We're livin' in the one who gave
His life to see our sin erased

e|-------------------------------------------|
B|-------------------------------------------|
G|-------------------------------------------|
D|-------------------------------------------|
A|-7-7777-7777-7777777779-9999-9997-77777777-|
E|-------------------------------------------|
We know, we know
Our hope is never gonna fade away

Chorus
e|------------------|
B|------------------|
G|-------------7777-|
D|-7777777755559999-| x4
A|-9999999977779999-|
E|-999999997777-----|
Lord, lead us in the ways of your love
To lead a broken world to your cross
Lead us in the ways of your love

e|--------------------------------------|
B|--------------------------------------|
G|--------------------------------------|
D|-----------------5-5-5-5---7/9-/7/6---| x2
A|-7-7-7-7-7-7-7-7-7-7-7-7-5-9/11/9/8-7-|
E|-9-9-9-9-9-9-9-9---------7----------9-|
We are yours forever, our lives won't be the same
Yours forever, our eyes won't turn away

Outro
e|-----------------------------------------------------------|
B|-----------------------------------------------------------|
G|-----------------55555555----------------------5--5--------|
D|-77777777777777777777777755555555-7-7-7--7--7--3--3--55-7~-|
A|-99999999999999997777777777777777-9-9-9--9--9--3--3--33-9~-|
E|-9999999999999999--------77777777-9-9-9--9--9--------33-9~-|
We are yours forever, our lives won't be the same
Yours forever, our eyes won't turn away
Tap to rate this tab
 
# A B C D E F G H I J K L M N O P Q R S T U V W X Y Z