Hillsong United - Love Like Fire tab

Hillsong United:

"Love Like Fire"

 tabbed by emanuel

electric lead into


e--------------------7----------------|
B-----9---7---9--7h9------------------|
G---9---9---9---9---------------------|          x2
D-------------------------------------|
A-------------------------------------|
E-------------------------------------|


e--------------------7--------------|
B-----9---7---9--7h9----------------|
G---6---6---6--6--------------------|         x2
D-----------------------------------|
A-----------------------------------|
E-----------------------------------|


e----------------------7---|
B------9---7---9---7h9-----|
G--------------------------|
D----9---9---9---9---------|
A--------------------------|
E--------------------------|


e---------------------7-----|
B-----9---7---9---7h9-------|
G---------------------------|
D---7---7---7---7-----------|
A---------------------------|
E---------------------------|


e----------------------7----------|
B-----9---7----9---7h9------------|
G---9---9---9----9----------------|
D-----------------------------x2--|                                   repeat in verse
A---------------------------------|
E---------------------------------|
Tap to rate this tab
 
# A B C D E F G H I J K L M N O P Q R S T U V W X Y Z