Hillsong United - Came To My Rescue tab

-----------------------------------------------------------------------------
		 Came To My Rescue - Hillsong United
-----------------------------------------------------------------------------
Tabbed by: eddie
Screen name here and on YouTube: iRoc2JesusMusic

Tuning: EADGBe(Standard)

              ~~~~~~~~BEFORE YOU CONTINUE~~~~~~~
~NOTE THAT THIS IS THE VERSION FROM "THE I HEART REVOLUTION"~
            (NOT THE VERSION FROM "UNITED WE STAND")

e|-------3---------3------------------7-8---8---(8)-(8)-(8)-|
B|-5~--5---6-5~--5---6-5~--(5)-----5------6---(6)-(6)-(6)---|
G|----5-5-------5-5------(5)-(5)--5-5-----------------------|
D|----------------------------------------------------------|
A|----------------------------------------------------------|
E|----------------------------------------------------------|

e|-------------3--------------3----------------------7-8---8---(8)-(8)-(8)-|
B|-5~---5----5---6-5~--5----5---6-5~--(5)-----5----5-----6---(6)-(6)-(6)---|
G|---(5)-5--5-5-------5-5--5-5------(5)-(5)--5-5--5-5----------------------|
D|-------------------------------------------------------------------------|
A|-------------------------------------------------------------------------|
E|-------------------------------------------------------------------------|

There are parts missing which shouldn't take much to figure out and tab
But this is certainly 100% for me at least, comment if you have questions.
Thanks and God bless.

************************************
|( )  Ghost Note/Quiet Note
| ^   Accent
| /   Slide up
| \   Slide down
| h   Hammer-on
| p   Pull-off
| ~   Vibrato
| +   Harmonic
| x   Mute note
| pm  Palm mute
| b   Bend
| pb  Pre-bend
| br  Bend release
| pbr Pre-bend release
| brb Bend release bend

************************************
Tap to rate this tab
 
# A B C D E F G H I J K L M N O P Q R S T U V W X Y Z