Song name
# A B C D E F G H I J K L M N O P Q R S T U V W X Y Z

Hillsong United - The Time Has Come tab

E|10-10-10-10-10-10-10-10------------|
B|-----------------------------------|
G|-----------------------------------|           2x
D|-----------------------------------|
A|-----------------------------------|
E|-----------------------------------|

E|------------------------------------9-9-9-9---------------------9-9-9-9-|
B|10-10-10-10-10-10-10-10-12-12-12-12---------9-9-9-9-12-12-12-12---------|
G|------------------------------------------------------------------------|
D|------------------------------------------------------------------------|
A|------------------------------------------------------------------------|
E|------------------------------------------------------------------------|

E|------------------------------------------------------------------------|
B|7-7-7-7-7-7-7-7-10-10-10-10-9-9-9-9-5-5-5-5-7-7-7-7-7-7-7-7-12-12-12-12-|
G|------------------------------------------------------------------------|
D|------------------------------------------------------------------------|
A|------------------------------------------------------------------------|
E|------------------------------------------------------------------------|

E|9-9-9-9---------------------9-9-9-9-------------------------------------|
B|--------9-9-9-9-12-12-12-12---------7-7-7-7-7-7-7-7-10-10-10-10-9-9-9-9-|
G|------------------------------------------------------------------------|
D|------------------------------------------------------------------------|
A|------------------------------------------------------------------------|
E|------------------------------------------------------------------------|

E|-------------------------------------------------------------------------|
B|5-5-5-5-5-5-5-5-|||3-3-3-3-3-3-3-3-3-3-3-3-5-5-5-5-2-2-2-2-2-2-2-2-3-3-3-|
G|-------------------------------------------------------------------------|
D|-------------------------------------------------------------------------|
A|-------------------------------------------------------------------------|
E|-------------------------------------------------------------------------|

E|------------------------------------------------------------------------|
B|3-3-3-3-3-3-3-3-3-3-3-3-3-5-5-5-5-5-5-5-5-5-5-5-5-5-5-5-5|||------------|
G|------------------------------------------------------------------------|
D|------------------------------------------------------------------------|
A|------------------------------------------------------------------------|
E|------------------------------------------------------------------------|

(|||3-3-3-3-3-3-3-3-5-............|||)     The part between the triple lines is played twice.

Then...

E|7-7-7-7-7-7-7-7-7-7-7-7-7-7-7-7-----------------------------------------|
B|--------------------------------10-10-10-10-10-10-10-10-9-9-9-9-9-9-9-9-|
G|------------------------------------------------------------------------|
D|------------------------------------------------------------------------|
A|------------------------------------------------------------------------|
E|------------------------------------------------------------------------|

E|7-7-7-7-7-7-7-7-7-7-7-7-7-7-7-7-------------------------------------------|
B|--------------------------------10-10-10-10-10-10-10-10-12-12-12-12-14-14-|
G|--------------------------------------------------------------------------|
D|--------------------------------------------------------------------------|
A|--------------------------------------------------------------------------|
E|--------------------------------------------------------------------------|

E|------7-7-7-7-7-7-7-7-7-7-7-7-12-12-12-12----------------------------------|
B|14-14-------------------------------------10-10-10-10-10-10-10-10-12-12-12-|
G|---------------------------------------------------------------------------|
D|---------------------------------------------------------------------------|
A|---------------------------------------------------------------------------|
E|---------------------------------------------------------------------------|

E|---------------7-7-7-7-7-7-7-7-7-7-7-7-7-7-7-7------------------------|
B|12-14-14-14-14---------------------------------9-10-10-10-10-10-10-10-|
G|----------------------------------------------------------------------|
D|----------------------------------------------------------------------|
A|----------------------------------------------------------------------|
E|----------------------------------------------------------------------|

E|---------------------------|
B|10-10-10-10-10-10-10-10-10-|
G|---------------------------|
D|---------------------------|
A|---------------------------|
E|---------------------------|

This is the concert intro.   If you want to hear it go on YouTube(the riff has a sweet 
added to it in the song).
Tap to rate this tab
 
# A B C D E F G H I J K L M N O P Q R S T U V W X Y Z