Song name
# A B C D E F G H I J K L M N O P Q R S T U V W X Y Z

Hillsong United - Second Chance tab

-------------------------------------------------------------------------------
			     Second Chance ~ Hillsong United
-------------------------------------------------------------------------------
Tabbed by: ijustwannalive
Email: addicted-18@hotmail.co.uk

Tuning: Standard

(2x) Electric Guitar
(1x) Acoustic Guitar (Capo 4th)

Key ~ B or G#m (whichever you prefer)

Starts off with just keyboards playing

Then the Delayed Guitar comes in. It is difficult to tell whether it is the keyboards 
playing or the Guitar, so I will just tab it anyways

(Guitar 2 with delay)

e|-------------------------------------------------------|
B|---------5~~--7~~--4~~---------------------------------|
G|----4~~------------------------------------------------|
D|-------------------------------------------------------|
A|-------------------------------------------------------|
E|-------------------------------------------------------|

The Chords are then just played in arpeggio form throughout the 1st verse

Verse 1 Chords ~ B, E, C#m, F#

(Guitar 1)

e|----------------------------------------------------------------------|
B|---------------------------9~~-----------16~~-17~~-19~~----------11~~-|
G|-------------8~~--------9~~-----------6~~--------------------11~~-----|
D|----------9~~--------9~~-----------6~~-------------------11~~---------|
A|-------9~~--------7~~-----------4~~-------------------9~~-------------|
E|----7~~---------------------------------------------------------------|

      B            E		           C#m                    F#


Verse 2

Acoustic Guitar enters with Verse Chords (Capo 4th)

G, C, Am7, D

(Guitar 1) Played very quietly

e|----------------------------------------------------------------------|
B|---------------------------9~~-----------5~~---------------------11~~-|
G|-------------8~~--------9~~-----------6~~--------------------11~~-----|
D|----------9~~--------9~~-----------6~~-------------------11~~---------|
A|-------9~~--------7~~-----------4~~-------------------9~~-------------|
E|----7~~---------------------------------------------------------------|

      B            E		           C#m                    F#


Keyboard Transposed into guitar for verse ~

(Guitar 2 with Ebow and delay) You can also just play the root notes of the chords if 
you prefer or the chords themself

e|-------------------------------------------------------|
B|-------------------------------------------------------|
G|----8~~~----8~~~----9~~~----6~~~----11~~~--------------|
D|-------------------------------------------------------|
A|-------------------------------------------------------|
E|-------------------------------------------------------|

Chorus

Acoustic Guitar (capo 4th) plays ~ G, D, Em7, C

Chords ~ B, F#, G#m, E

(Guitar 1)

e|----------------------------------------------------------------------------------|
B|----------------------------------------------------------------------------------|
G|------8---8---8---8-----11---11---11--11------4---4---4---4-----9---9---9---9-----|
D|----9---9---9---9---9/11---11---11---11--11\6---6---6---6---6/9---9---9---9---9---|
A|----------------------------------------------------------------------------------|
E|----------------------------------------------------------------------------------|

X2

Keyboard Transposed into guitar for Chorus ~

(Guitar 2 with Ebow and delay) Again, you can also just play the root notes of the 
chords if you prefer or the chords themself

e|---------------------------------------------------|
B|---------------------------------------------------|
G|----8~~~----11~~~----4~~~----9~~~------------------|
D|---------------------------------------------------|		X2
A|---------------------------------------------------|
E|---------------------------------------------------|


Verse 3

(Guitar 2 with delay)

e|----11-------12-----------------|
B|----------------------12~~~-----|
G|--------------------------------|
D|--------------------------------|
A|--------------------------------|
E|--------------------------------|

(Guitar 1 with delay)

e|------------------------------------------------|
B|--------------------5~~-------------------------|
G|----8~~-----9~~-----6~~-----11~~----------------|
D|----9~~-----9~~-----6~~-----11~~----------------|
A|----9~~-----7~~-----4~~-----9~~-----------------|
E|----7~~-----------------------------------------|

Chorus

Acoustic Guitar (capo 4th) plays ~ G, D, Em7, C

Chords ~ B, F#, G#m, E


(Guitar 1)

e|----------------------------------------------------------------------------------|
B|----------------------------------------------------------------------------------|
G|------8---8---8---8-----11---11---11--11------4---4---4---4-----9---9---9---9-----|
D|----9---9---9---9---9/11---11---11---11--11\6---6---6---6---6/9---9---9---9---9---|
A|----------------------------------------------------------------------------------|
E|----------------------------------------------------------------------------------|

X2

Interlude before Bridge

Acoustic Guitar (capo 4th) ~ Am7, D

(Guitars 1 and 2 with Distortion)

e|---X-X-------------------------------------------------------------|
B|---X-X---5-5-5-5-5-5-5-5-------------------------------------------|
G|---X-X---6-6-6-6-6-6-6-6---11-11-11-11-11-11-11-11-----------------|
D|---X-X---6-6-6-6-6-6-6-6---11-11-11-11-11-11-11-11-----------------|
A|---X-X---4-4-4-4-4-4-4-4---9--9--9--9--9--9--9--9------------------|
E|---X-X-------------------------------------------------------------|
           C#m		             F#

Bridge ~ Same Chords as the Chorus

(Guitars 1 and 2 with Distortion)

e|-----------------------------------------------------------------------------------------------|
B|-------------------------------------------------------------9-9-9-9-9-9-9-9-------------------|
G|----8-8-8-8-8-8-8-8----3-3-3-3-3-3-3-3----4-4-4-4-4-4-4-4----9-9-9-9-9-9-9-9-------------------|
D|----9-9-9-9-9-9-9-9----4-4-4-4-4-4-4-4----6-6-6-6-6-6-6-6----9-9-9-9-9-9-9-9-------------------|
A|----9-9-9-9-9-9-9-9----4-4-4-4-4-4-4-4----6-6-6-6-6-6-6-6----7-7-7-7-7-7-7-7-------------------|
E|----7-7-7-7-7-7-7-7----2-2-2-2-2-2-2-2----4-4-4-4-4-4-4-4--------------------------------------|

e|----------------------------------------------------------------------------------------------|
B|----------------------------------------------------------------------------------------------|
G|----8-8-8-8-8-8-8-8----3-3-3-3-3-3-3-3----4-4-4-4-4-4-4-4----1~~~~----------------------------|
D|----9-9-9-9-9-9-9-9----4-4-4-4-4-4-4-4----6-6-6-6-6-6-6-6----2~~~~----------------------------|
A|----9-9-9-9-9-9-9-9----4-4-4-4-4-4-4-4----6-6-6-6-6-6-6-6----2~~~~----------------------------|
E|----7-7-7-7-7-7-7-7----2-2-2-2-2-2-2-2----4-4-4-4-4-4-4-4----0~~~~----------------------------|


Instrumental

(Guitar 1 with delay)

e|-----------14~~~-------------|
B|-----12~~~--------12~~~------|
G|-----------------------------|		X16
D|-----------------------------|
A|-----------------------------|
E|-----------------------------|


Guitar 2 joins in half way through Guitar 1s part

It was very difficult to make out exactly what the guitar was playing, but I think it 
sounded something like this

(Guitar 2 with slight Distortion and a little delay ~ palm muted)

e|----------------------------------------------------------|
B|----------------------------------------------------------|
G|--------8------11--11--8------9--9--8-------8-------------|			X8
D|----9-9-----------------------------------9---9-----------|
A|----------------------------------------------------------|
E|----------------------------------------------------------|

Interlude before Bridge

Acoustic Guitar (capo 4th) ~ Am7, D

(Guitars 1 and 2 with Distortion)

e|---X-X-------------------------------------------------------------|
B|---X-X---5-5-5-5-5-5-5-5-------------------------------------------|
G|---X-X---6-6-6-6-6-6-6-6---11-11-11-11-11-11-11-11-----------------|
D|---X-X---6-6-6-6-6-6-6-6---11-11-11-11-11-11-11-11-----------------|
A|---X-X---4-4-4-4-4-4-4-4---9--9--9--9--9--9--9--9------------------|
E|---X-X-------------------------------------------------------------|
           C#m		                F#

Bridge ~ Same Chords as the Chorus

(Guitars 1 and 2 with Distortion)

e|-----------------------------------------------------------------------------------------------|
B|-------------------------------------------------------------9-9-9-9-9-9-9-9-------------------|
G|----8-8-8-8-8-8-8-8----3-3-3-3-3-3-3-3----4-4-4-4-4-4-4-4----9-9-9-9-9-9-9-9-------------------|
D|----9-9-9-9-9-9-9-9----4-4-4-4-4-4-4-4----6-6-6-6-6-6-6-6----9-9-9-9-9-9-9-9-------------------|
A|----9-9-9-9-9-9-9-9----4-4-4-4-4-4-4-4----6-6-6-6-6-6-6-6----7-7-7-7-7-7-7-7-------------------|
E|----7-7-7-7-7-7-7-7----2-2-2-2-2-2-2-2----4-4-4-4-4-4-4-4--------------------------------------|


e|----------------------------------------------------------------------------------------------|
B|----------------------------------------------------------------------------------------------|
G|----8-8-8-8-8-8-8-8----3-3-3-3-3-3-3-3----4-4-4-4-4-4-4-4----1-1-1-1-1-1-1-1------------------|
D|----9-9-9-9-9-9-9-9----4-4-4-4-4-4-4-4----6-6-6-6-6-6-6-6----2-2-2-2-2-2-2-2------------------|
A|----9-9-9-9-9-9-9-9----4-4-4-4-4-4-4-4----6-6-6-6-6-6-6-6----2-2-2-2-2-2-2-2------------------|
E|----7-7-7-7-7-7-7-7----2-2-2-2-2-2-2-2----4-4-4-4-4-4-4-4----0-0-0-0-0-0-0-0------------------|

e|-----------------------------------------------------------------------------------------------|
B|-------------------------------------------------------------9-9-9-9-9-9-9-9-------------------|
G|----8-8-8-8-8-8-8-8----3-3-3-3-3-3-3-3----4-4-4-4-4-4-4-4----9-9-9-9-9-9-9-9-------------------|
D|----9-9-9-9-9-9-9-9----4-4-4-4-4-4-4-4----6-6-6-6-6-6-6-6----9-9-9-9-9-9-9-9-------------------|
A|----9-9-9-9-9-9-9-9----4-4-4-4-4-4-4-4----6-6-6-6-6-6-6-6----7-7-7-7-7-7-7-7-------------------|
E|----7-7-7-7-7-7-7-7----2-2-2-2-2-2-2-2----4-4-4-4-4-4-4-4--------------------------------------|

e|-----------------------------------------------------------------------------------|
B|-----------------------------------------------------------------------------------|
G|----8-8-8-8-8-8-8-8----3-3-3-3-3-3-3-3----4-4-4-4-4-4-4-4----1~~~------------------|
D|----9-9-9-9-9-9-9-9----4-4-4-4-4-4-4-4----6-6-6-6-6-6-6-6----2~~~------------------|
A|----9-9-9-9-9-9-9-9----4-4-4-4-4-4-4-4----6-6-6-6-6-6-6-6----2~~~------------------|
E|----7-7-7-7-7-7-7-7----2-2-2-2-2-2-2-2----4-4-4-4-4-4-4-4----0~~~------------------|


End on E

Just an amazing song!!! Hope you enjoy it! :D


************************************

| /   slide up
| \   slide down
| h   hammer-on
| p   pull-off
| ~   vibrato
| +   harmonic
| x   Mute note
| b   Bend
| pb  Pre-bend
| br  Bend release
| pbr Pre-bend release
| brb Bend release bend

************************************
Tap to rate this tab
 
# A B C D E F G H I J K L M N O P Q R S T U V W X Y Z