Song name
# A B C D E F G H I J K L M N O P Q R S T U V W X Y Z

Hillsong United - One Way tab

Intro: (0:09)
e|--------------------|
B|--------------------|
G|--------------------|
D|-21-21-20-20-16-16--| (x4)
A|--------------------|
E|--------------------|

Verse 1:
e|-14--14-14-14-11-9-11-11--|
B|--------------------------|
G|--------------------------|
D|--------------------------|
A|--------------------------|
E|--------------------------|

e|-11--11-11-11-11--12-11-7--|
B|---------------------------|
G|---------------------------|
D|---------------------------|
A|---------------------------|
E|---------------------------|

e|-14--14-14-11-9----11-7--|
B|-------------------------|
G|-------------------------|
D|-------------------------|
A|-------------------------|
E|-------------------------|

Fill:
e|--------------------|
B|-14-12-14-12--14br--|
G|--------------------|
D|--------------------|
A|--------------------|
E|--------------------|

Verse 1: (continued)
e|-14--14-14-14-11-9-11-11--|
B|--------------------------|
G|--------------------------|
D|--------------------------|
A|--------------------------|
E|--------------------------|

e|-11--11-11-11-11--12-11-7--|
B|---------------------------|
G|---------------------------|
D|---------------------------|
A|---------------------------|
E|---------------------------|

e|-14--14-14-11-9---9-11-7-|
B|-------------------------|
G|-------------------------|
D|-------------------------|
A|-------------------------|
E|-------------------------|

Chorus:
e| |----------------------| |
B|0|-12-14-16 (let ring)--|0| 
G| |----------------------| |
D| |----------------------| | 
A|0|----------------------|0|
E| |----------------------| |

e|-----------------------------------|
B|-16--16-16--16-16-16--17-16-14-12--|
G|-----------------------------------|
D|-----------------------------------|
A|-----------------------------------|
E|-----------------------------------|

e| |----------------------| |
B|0|-12-14-16 (let ring)--|0| 
G| |----------------------| |
D| |----------------------| | 
A|0|----------------------|0|
E| |----------------------| |

e|-----------------------------------|
B|-16--16-16--16-16-16--17-16-14-12--|
G|-----------------------------------|
D|-----------------------------------|
A|-----------------------------------|
E|-----------------------------------|

Pre-Verse:
e|------------------------|
B|------------------------|
G|------------------------| 
D|-9-8b9r8b9r6-6-------9--|
A|------------6-9-6b7r6---|
E|------------------------|

e|------------------------|
B|------------------------|
G|-------------8b9r8b9r8--|
D|-8b9r8-9-8-6------------|
A|----------6-9-----------|
E|------------------------|

Verse 2:
e|-14--14-14-14-11-9-11-11--|
B|--------------------------|
G|--------------------------|
D|--------------------------|
A|--------------------------|
E|--------------------------|

e|-11--11-11-11-11--12-11-7--|
B|---------------------------|
G|---------------------------|
D|---------------------------|
A|---------------------------|
E|---------------------------|

e|-14--14-14-11-9----11-7--|
B|-------------------------|
G|-------------------------|
D|-------------------------|
A|-------------------------|
E|-------------------------|

Fill:
e|--------------------|
B|-14-12-14-12--14br--|
G|--------------------|
D|--------------------|
A|--------------------|
E|--------------------|

Verse 2: (continued)
e|-14--14-14-14-11-9-11-11--|
B|--------------------------|
G|--------------------------|
D|--------------------------|
A|--------------------------|
E|--------------------------|

e|-11--11-11-11-11--12-11-7--|
B|---------------------------|
G|---------------------------|
D|---------------------------|
A|---------------------------|
E|---------------------------|

e|-14--14-14-11-9---9-11-7-|
B|-------------------------|
G|-------------------------|
D|-------------------------|
A|-------------------------|
E|-------------------------|

Chorus:
e| |----------------------| |
B|0|-12-14-16 (let ring)--|0| 
G| |----------------------| |
D| |----------------------| | 
A|0|----------------------|0|
E| |----------------------| |

e|-----------------------------------|
B|-16--16-16--16-16-16--17-16-14-12--|
G|-----------------------------------|
D|-----------------------------------| (repeat chorus x4)
A|-----------------------------------|
E|-----------------------------------|

Bridge:
e| |---------------------------------|
B|0|---------------------------------|
G| |-16-16--16--11-11--11--13-13--13-|
D| |---------------------------------|
A|0|---------------------------------|
E| |---------------------------------|

e|---------------------------------------| |
B|---------------------------------------|0|
G|-9-9--9--13-13--13--11-11--11--9-9--9--| |
D|---------------------------------------| |
A|---------------------------------------|0|
E|---------------------------------------| |

e| |-------------------------------------------------------------| |
B|0|-------------------------------------------------------------|0|
G| |-16-(x8)--11-(x8)--13-(x8)--9-(x8)--13-(x8)--11-(x8)--9-(x8)-| |
D| |-------------------------------------------------------------| |
A|0|-------------------------------------------------------------|0|
E| |-------------------------------------------------------------| |

Chorus:
e| |----------------------| |
B|0|-12-14-16 (let ring)--|0| 
G| |----------------------| |
D| |----------------------| | 
A|0|----------------------|0|
E| |----------------------| |

e|-----------------------------------|
B|-16--16-16--16-16-16--17-16-14-12--|
G|-----------------------------------|
D|-----------------------------------| (repeat chorus x4)
A|-----------------------------------|
E|-----------------------------------|

End on:
e|-------|
B|-5/7\5-|
G|-------|
D|-------|
A|-------|
E|-------|
Tap to rate this tab
 
# A B C D E F G H I J K L M N O P Q R S T U V W X Y Z