Hillsong United - Yours Forever tab

-----------------------------------------------------------------------------
	                YOURS FOREVER - Hillsong United
-----------------------------------------------------------------------------
Tabbed by: Ashley Daws
Email: dawsy5@hotmail.com

Tuning: 
Guitar 1 = Standard
Guitar 2 = Standard

GUITAR 1

Intro X2
e| |---------------------------------|---------------------------------|
B| |---------------------------------|---------------------------------|
G| |-4--4-2-4--4--------2-------2----|-4--4-2-4--4---------------------|
D| |-------------2--0-------4--------|-------------2--0---2------------| 
A| |---------------------------------|------------------------2--------|
E| |---------------------------------|---------------------------------|

Verse X2
e| |----------------------------|----------------------------|
B| |----------------------------|----------------------------|
G| |----------------------------|----------------------------|
D| |----------------------------|----------------------------|  
A| |-222222/777999\555555444444-|-222222/777999\555555444444-|
E| |----------------------------|----------------------------|
     **************************   **************************

Intro
Verse X2

Pre Chorus X4
e| |----------------------------------|
B| |----------------------------------|
G| |-----------------7---7------------|
D| |-9---9---9---9---7---7---7---7----|  
A| |-9---9---9---9---5---5---7---7----|
E| |-7---7---7---7-----------5---5----|

Chorus X2
e| |----------------------------------|----------------------------------|
B| |----------------------------------|----------------------------------|
G| |----------------------------------|-7---7---7---7--------------------|
D| |-9---9---9---9---9---9---9---9----|-7---7---7---7---7---7---7---7----| 
A| |-9---9---9---9---9---9---9---9----|-5---5---5---5---7---7---7---7----|
E| |-7---7---7---7---7---7---7---7----|-----------------5---5---5---5----|

Intro
Verse X2
Pre Chorus X4
Chorus X3

Chorus 2(4th time through)
e| |----------------------------------|----------------------------------|
B| |----------------------------------|----------------------------------|
G| |----------------------------------|-7---7---7---7--------------------|
D| |-9\\\-----------------------------|-7---7---7---7---7---7---7---7----| 
A| |-9\\\-----------------------------|-5---5---5---5---7---7---7---7----|
E| |-7\\\-----------------------------|-----------------5---5---5---5----|

Instrumental
e| |----------------------------------|----------------------------------|
B| |----------------------------------|----------------------------------|
G| |----------------------------------|----------------------------------|
D| |----------------------------------|-9---9---9---9---9---9---9---9----| 
A| |----------------------------------|-9---9---9---9---9---9---9---9----|
E| |----------------------------------|-7---7---7---7---7---7---7---7----|

e| |---------------------------------------|-------------------------------|
B| |-7-7-------7-7-------7-7-------10-b12--|-------------------------------|
G| |-7-7-------7-7-------7-7---------------|-------------------------------|
D| |-----9p7h9-----9p7h9-----9p7h9---------|-9---9---9---9---9---9---9---9-| 
A| |---------------------------------------|-9---9---9---9---9---9---9---9-|
E| |---------------------------------------|-7---7---7---7---7---7---7---7-|

Bridge
e| |----------------------------------|----------------------------------|
B| |----------------------------------|----------------------------------|
G| |-----------------7-------------6--|----------------------------------|
D| |-9------------7--7-------------6--|-2------------2--4-------2--------| 
A| |-9------------7--5-------------4--|-2------------2--4-------2--------|
E| |-7------------5-------------------|-0------------0--2-------0--------|

e| |------------------------------------------------|
B| |------------------------------------------------|
G| |------------------------------------------------|
D| |-9--9999--9999--99999999912--12121212--12121212-|
A| |-9--9999--9999--99999999912--12121212--12121212-|
E| |-7--7777--7777--77777777710--10101010--10101010-|

e| |----------------------------------------------------------------|
B| |----------------------------------------------------------------|
G| |----------------------------------------------------------------|
D| |-12121212121212121214--14141414--14141414--14141414141414141416-| 
A| |-12121212121212121214--14141414--14141414--14141414141414141416-| 
E| |-10101010101010101012--12121212--12121212--12121212121212121214-|

e| |--------------------------------------------|
B| |--------------------------------------------|
G| |--------------------------------------------|
D| |---16161616--161616141414141414141414141414-|
A| |---16161616--161616141414141414141414141414-|
E| |---14141414--141414121212121212121212121212-|

Pre Chorus x4
Chorus x3

Chorus 3(Last time through)
e| |---------------------------------|----------------------------------|---
B| |---------------------------------|----------------------------------|---
G| |---------------------------------|-7-------7------------------------|---
D| |-9-------9-------9-------9-------|-7-------7--------7-------72------|-9-
A| |-9-------9-------9-------9-------|-5-------5--------7-------72------|-9-
E| |-7-------7-------7-------7-------|------------------5-------50------|-7-



GUITAR 2 

Intro 1
e| |---------------------------------|---------------------------------|
B| |---------------------------------|---------------------------------|
G| |----------------7----------------|----------------7---7------------|
D| |-9--------------7-------7--------|-9--------------7---7---7--------|  
A| |-9--------------5-------7--------|-9--------------5---5---7--------|
E| |-7----------------------5--------|-7----------------------5--------|

Intro 2
e| |-10--10-9-10--10-9--10---12---9---9-|-10--10-9-10--10-9---10---12---9-|
B| |------------------------------------|---------------------------------|
G| |------------------------------------|---------------------------------|
D| |------------------------------------|---------------------------------|  
A| |------------------------------------|---------------------------------|
E| |------------------------------------|---------------------------------|

Verse X2
e| |--------------------------------|--------------------------------|
B| |--------------------------------|--------------------------------|
G| |-777777/999111111\7777776666666-|-777777/999111111\7777776666666-|
D| |--------------------------------|--------------------------------|  
A| |--------------------------------|--------------------------------|
E| |--------------------------------|--------------------------------|
     ******************************   ******************************
Intro 2
Verse x2

Pre Chorus x4
e| |---------------------------------|
B| |-11--10--11--11-15-15--12--7--10-|
G| |--x---x---x---x--x--x---x--x---x-| 
D| |--9---7---9---7-12-12---9--4---7-|  
A| |---------------------------------|
E| |---------------------------------|

Chorus x2
e| |----------------------------------|----------------------------------|
B| |----------------------------------|----------------------------------|
G| |-4---4---4---4---4/7---------7-7--|-9---9---9---9---9-9--11/9-7-4----| 
D| |-x---x---x---x---x-x---------x-x--|-x---x---x---x---x-x-- x x-x-x----|  
A| |-2---2---2---2---2/5---------5-5--|-7---7---7---7---7-7-- 9/7-5-2----|
E| |----------------------------------|----------------------------------|

Intro 2
Verse x2
Pre Chorus x4
Chorus x3

Chorus 2 (4th time through)
e| |----------------------------------|----------------------------------|
B| |----------------------------------|----------------------------------|
G| |----------------------------------|-7---7---7---7--------------------|
D| |-9\\\-----------------------------|-7---7---7---7---7---7---7---7----| 
A| |-9\\\-----------------------------|-5---5---5---5---7---7---7---7----|
E| |-7\\\-----------------------------|-----------------5---5---5---5----|

Instrumental X2
e| |-------------------------------------|-------------------------------|
B| |-7-7-------7-7-------7-7-------------|-------------------------------|
G| |-7-7-------7-7-------7-7-------9-b11-|-------------------------------|
D| |-----9p7h9-----9p7h9-----9p7h9-------|-9---9---9---9---9---9---9---9-| 
A| |-------------------------------------|-9---9---9---9---9---9---9---9-|
E| |-------------------------------------|-7---7---7---7---7---7---7---7-|

Pre Chorus x2
Chorus x3

Chorus 3(Last time through)
e| |-------------------------------|----------------------------------|---|
B| |-------------------------------|----------------------------------|---|
G| |-------------------------------|-7-------7------------------------|---|
D| |-9-------9-------9-------9-----|-7-------7--------7-------72------|-9-|
A| |-9-------9-------9-------9-----|-5-------5--------7-------72------|-9-|
E| |-7-------7-------7-------7-----|------------------5-------50------|-7-|




************************************
| /   slide up
| \   slide down
| h   hammer-on
| p   pull-off
| x   Mute note
| b   Bend
| *   Palm Mute
************************************
Tap to rate this tab
 
# A B C D E F G H I J K L M N O P Q R S T U V W X Y Z