Song name
# A B C D E F G H I J K L M N O P Q R S T U V W X Y Z

Hillsong United - Awakening tab

Here is a tab for Hillsong's cover of Awakening by Chris Tomlin. It's off their 
new album Aftermath. 

Intro:
e|-----------------------------------------------------------------------|
B|-----------------------------------------------------------------------|
G|-----------------------------------------------------------------------|
D|-----------------------------------------------------------------------|
A|-----7----7----------9-----9--------7-----7--------7-----7-------------|
E|--0----0----------7-----7--------5-----5-------0------0----------------|

Verse: keep repeating this
e|-----------------------------------------------------------------------|
B|-----------------------------------------------------------------------|
G|-----------------------------------------------------------------------|
D|-----------------------------------------------------------------------|
A|-----7----7----------9-----9--------7-----7--------7-----7-------------|
E|--0----0----------7-----7--------5-----5-------0------0----------------|

In our hearts...   Nation...                Awakening

Keep playing like that through the verse, and then


For you and you alone...
e|---------------------------------------------------------------------|
B|---------------------------------------------------------------------|
G|---------------------------------------------------------------------|
D|---------------------------------------------------------------------|
A|-----7----7--------11------11------7----7----------9-------9---------|
E|--5----5-------9-------9--------0-----0--------7-------7-------------|

For the World you love...
e|---------------------------------------------------------------------|
B|---------------------------------------------------------------------|
G|---------------------------------------------------------------------|
D|---------------------------------------------------------------------|
A|-----7----7--------11------11------7----7----------9-------9---------|
E|--5----5-------9-------9--------0-----0--------7-------7-------------|


Verse 2: keep repeating this
e|-----------------------------------------------------------------------|
B|-----------------------------------------------------------------------|
G|-----------------------------------------------------------------------|
D|-----------------------------------------------------------------------|
A|-----7----7----------9-----9--------7-----7--------7-----7-------------|
E|--0----0----------7-----7--------5-----5-------0------0----------------|

In your presence...  power...             Awakening

the instrumental goes like this:
Tremolo It!!!
e|-9-9-9-11-11-11-11-12-12-12--14-14-14-16-16-16-16-16-16-16-14-14-14-14-|
B|-----------------------------------------------------------------------|
G|-----------------------------------------------------------------------|
D|-----------------------------------------------------------------------|
A|-----------------------------------------------------------------------|
E|-----------------------------------------------------------------------|

Keep playing that through the part that goes: "like the rising sun that shines"
After that play this:
The same thing, except without tremolo.
e|-9-9-9-9-9-9-11-11-12-12-12-12-12-12-14-14-16-16-16-16-------------14---|
B|-------------------------------------------------------12--12--12-------|
G|------------------------------------------------------------------------|
D|------------------------------------------------------------------------|
A|------------------------------------------------------------------------|
E|------------------------------------------------------------------------|

************************************

| /   slide up
| \   slide down
| h   hammer-on
| p   pull-off
| ~   vibrato
| +   harmonic
| x   Mute note
| b   Bend
| pb  Pre-bend
| br  Bend release
| pbr Pre-bend release
| brb Bend release bend

************************************

Here's The Lyrics 
In our hearts, Lord, in this nation
Awakening
Holy Spirit, we desire
Awakening

For You and You alone
Awake my soul, awake my soul and sing
For the world You love
Your will be done, let Your will be done in me

In Your presence, in Your power
Awakening
For this moment, for this hour
Awakening

For You and You alone
Awake my soul, awake my soul and sing
For the world You love
Your will be done, let Your will be done in me

For You and You alone
Awake my soul, awake my soul and sing
For the world You love
Your will be done, let Your will be done in me

Like the rising sun that shines
From the darkness comes a light
I hear Your voice and this is my
Awakening

Like the rising sun that shines
From the darkness comes a light
I hear Your voice and this is my
Awakening

Like the rising sun that shines
Awake my soul, awake my soul and sing
From the darkness comes a light
Awake my soul, awake my soul and sing

Like the rising sun that shines
Awake my soul, awake my soul and sing
Only You can raise a life
Awake my soul, awake my soul and sing


God bless, and message me any changes that need to be made, steaklover
Tap to rate this tab
 
# A B C D E F G H I J K L M N O P Q R S T U V W X Y Z