Hillsong United - Take Heart tab

First song off their new album "Aftermath". Awesome song, had fun tabbing it.
99% sure it's accurate.

PLAYED WITH FINGERS.
MOSTLY CLEAN, SLIGHT DELAY.


|---------------------------------5---7---5-------------------------|
|-5-------8-------5-------5---8----------------8--5---5---5---5-----|
|---5---5---5---5---5---5-------------------------------------------|
|-----7-------7-------7-----7---7---7---7---7-------7---7---7---7---|
|-------------------------------------------------------------------|
|-------------------------------------------------------------------|

|---------------------------------5---7---5-----------------|
|-5-------8-------5-------5---8----------------8--5---5-----|
|---5---5---5---5---5---5-----------------------------------|
|-----7-------7-------7-----7---7---7---7---7-------7---7---|
|-----------------------------------------------------------|
|-----------------------------------------------------------|

|---------------------------------------------------------------------|
|---------------8-----8------8-----------------------5----------------|
|-5--7--9-7---7----7------7-----7/9--9\7--7p5-----5-----5-----5----5--|
|-----------5--------5------5----------------5h7----------5-----5-----|
|-----------------------------------------------------------3---------|
|---------------------------------------------------------------------|

|----------------------------------------------------------------|
|---------------8-----8------8-----------------------------------|
|-5--7--9-7---7----7------7-----7/9--9\7--7p5-------5----5----5--|
|-----------5--------5------5----------------5h7-7----7----7-----|
|----------------------------------------------------------------|
|----------------------------------------------------------------|

|-----------------------------------------------------------------------|
|----------5-----------------5-----------------5-----------------5------|
|-5---5--------5----5---5--------5----5---5--------5----5---5--------5--|
|--------5-----------------5-----------------5-----------------5--------|
|---3-----------------3-----------------3-----------------3-------------|
|-----------------------------------------------------------------------|


As far as I know, the guitarist just sits on that last C (technically B) chord for the 
verse. The rest is just chords, which have already been tabbed.

Email me with questions/corrections:   jschell17@gmail.com
Enjoy.
Tap to rate this tab
 
# A B C D E F G H I J K L M N O P Q R S T U V W X Y Z