Song name
# A B C D E F G H I J K L M N O P Q R S T U V W X Y Z

Hillsong United - The Time Has Come tab

-------------------------------------------------------------------------------
			               The Time Has Come - Hillsong United
-------------------------------------------------------------------------------
Tabbed by: Ellison Arcaya
Email: ellison95@yahoo.com.ph

Tuning: Standard

Intro:

e|------------------------------------------------------------------------------------------|
B|------10------12---14---9------12---14----------------------------------------------------|
G|-----------------------------------------11------14---13---9------------------------------|
D|------------------------------------------------------------------------------------------|
A|------------------------------------------------------------------------------------------|
E|------------------------------------------------------------------------------------------|

x2

e|------------------------------------------------------------------------------------------|
B|------------------------------------------------------------------------------------------|
G|------7------9---6-----4-6-7------9-------------------------------------------------------|
D|------------------------------------------------------------------------------------------|
A|------------------------------------------------------------------------------------------|
E|------------------------------------------------------------------------------------------|

x2

e|------------------------------------------------------------------------------------------|
B|------12------10------9---12---14------12---14---15------17---14------12---14---15------17|
G|------------------------------------------------------------------------------------------|
D|------------------------------------------------------------------------------------------|
A|------------------------------------------------------------------------------------------|
E|------------------------------------------------------------------------------------------|

Verse: 

e|--------------------------------9-------9---------------9-------9---------------7-------7-|
B|------10------------7---7---7-------7-------7---7---7-------7-------5---5---5-------5-----|
G|------------------------------------------------------------------------------------------|
D|------------------------------------------------------------------------------------------|
A|------------------------------------------------------------------------------------------|
E|------------------------------------------------------------------------------------------|

x2

Bridge:

e|------------------------------------------------------------------------------------------|
B|--------------------14------15------17------14------12------------------------------------|
G|------------------------------------------------------------------------------------------|
D|------------------------------------------------------------------------------------------|
A|------------------------------------------------------------------------------------------|
E|------------------------------------------------------------------------------------------|

x3

Pre Chorus 1:

e|------------------------------------------------------------------------------------------|
B|------10------12------10---12---14---15---10---12---14---15-------------------------------|
G|------------------------------------------------------------------------------------------|
D|------------------------------------------------------------------------------------------|
A|------------------------------------------------------------------------------------------|
E|------------------------------------------------------------------------------------------|

Pre Chorus 2:

e|------------------------------------------------------------------------------------------|
B|------10------12------14------12------10------12------14---15-----------------------------|
G|------------------------------------------------------------------------------------------|
D|------------------------------------------------------------------------------------------|
A|------------------------------------------------------------------------------------------|
E|------------------------------------------------------------------------------------------|

Chorus:

A - F#m - D - A

x2


Song Order:

Intro
Verse
Pre Chorus 1
Chorus
Pre Chorus 1
Chorus
Chorus
Bridge
Pre Chorus 2
(dimebag darrel squeeling style)
Chorus
Chorus
End

Notes:

Alternate speed picking in all notes
Normal picking in verse except in 10(speed picking)




************************************

| /   slide up
| \   slide down
| h   hammer-on
| p   pull-off
| ~   vibrato
| +   harmonic
| x   Mute note
| b   Bend
| pb  Pre-bend
| br  Bend release
| pbr Pre-bend release
| brb Bend release bend

************************************
Tap to rate this tab
 
# A B C D E F G H I J K L M N O P Q R S T U V W X Y Z