Hillsong United - For Who You Are tab

Credit for tab goes to Kenny at the guitarpraise blogspot.

Intro/Verse (mute the B string):
---7------------------------------|
--------0-0-0---0--0-0-0--0-0-0---|
-8---8--------------------------8-|
----------------------------------|
----------------------------------|
----------------------------------|

---7------------------------------|
--------0-0-0---0--0-0-0--0-0-0---|
-9---9----------------------------|
----------------------------------|
----------------------------------|
----------------------------------|

Pre-Chorus (with palm mutes):
-----------------|-----------------|
-------12-----12-|-------11-----11-|
----13-----13----|----11-----11----|
-13--------------|-11--------------|
-----------------|-----------------|
-----------------|-----------------|

---------------|-----------------|
-------9-----9-|-------11-----11-|
----9-----9----|----11-----11----|
-9-------------|-11--------------|
---------------|-----------------|
---------------|-----------------|

-----------------|-----------------|
-------12-----12-|-------11-----11-|
----13-----13----|----11-----11----|
-13--------------|-11--------------|
-----------------|-----------------|
-----------------|-----------------|

-----------------------|
-12--------------------|
-9---(strum)-----------|
-9---------------------|
-----------------------|
-----------------------|

Chorus (stum the chords)
-7---7-7-7-------------|
-7---5-4-5-(x2)--------|
-4---4-4-4-------------|
-----------------------|
-----------------------|
-----------------------|

-6-------7-------------|
-7-------5-------------|
-6-------4-------------|
-----------------------|
-----------------------|
-----------------------|

Instrumental
-----------------------------|
-----------------------------|
-9-9-9-9s8-8--8s6-6--6s4-4-4-|
-----------------------------|
-7-7-7-7s6-6--6s4-4--4s2-2-2-|
-----------------------------|

------------------------------|
------------------------------|
-9-9-9-9s11-11-8s6-6--6s8-4-4-|
------------------------------|
-7-7-7-7s9--9--6s4-4--4s6-2-2-|
------------------------------|

--------------------------------|
--------------------------12-14-|
--------------------------------|
-9s8--8--8-4-4-4----11s13-------|
--------------------------------|
-7s6--6--6-2-2-2----------------|

-----------14----14--------------|
-14b15-12-----12----11-12--------|
--------------------------11-9-8-|
---------------------------------|
---------------------------------|
---------------------------------|
Tap to rate this tab
 
# A B C D E F G H I J K L M N O P Q R S T U V W X Y Z