Song name
# A B C D E F G H I J K L M N O P Q R S T U V W X Y Z

Hillsong United - Still tab

        FM7          Am7
e|0h1-0--------0h1-0--------|
B|-----1----1-------1----1--|
G|-------2------------0-----|
D|-------3--3------------2--|
A|--------------------0-----|
E|--------------------------|

       C       G               FM7
e|---0-0-----3-----------0h1-0-------0------|
B|1-3-----1----0------0-------1---1T-----1--|
G|----------------0----0--------2-------2-2-|
D|--------2---------------------3----3-3----|
A|-----3----------2--2----------------------|
E|-------------3----3-----------------------|

       Am               C         G
e|0h1-0---------------0-0-------3---------|
B|-----1------1----1-3--3--1--1---0--1-0--|
G|------0-------0--------------0----0-----|
D|---------2T--2-2---------2-2------------|
A|------0-0---0---------3---3----------2--|
E|--------------------------------3-------|
Tap to rate this tab
 
# A B C D E F G H I J K L M N O P Q R S T U V W X Y Z