Song name
# A B C D E F G H I J K L M N O P Q R S T U V W X Y Z

Hillsong United - Like An Avalanche tab

Like an Avalanche by Hillsong United

This is as close to the recording as I can get without restringing my guitar, 
as in the recording Timon strung his guitar with the EABEBE strings instead 
of the EADGBE string, but is still tuned to EADGBE

THIS tab is for a NORMALLY strung and tuned guitar.

This is my first tab. hope it works for you! 

CAPO 6
(intro + verses + bridge)
e|-----2-------2/3-----2-------2/3-----2-------2/3-|
B|-------0---------------0---------------0---------|
G|-----------0-----0---------0---------------0-----|
D|-2-------------------------------0---------------|
A|-------------------------------------------------|
E|-------------------------------------------------|

e|-----0-----0---------2-------2/3-----2-------2/3-|
B|-------0-----0----------0--------------0---------|
G|---------------0-----------0-----0---------0-----|
D|-----------------2-------------------------------|
A|-3-----------------------------------------------|
E|-------------------------------------------------|

e|-----2-------2/3-----2-------2/3-|
B|-------0---------------0---------|
G|-----------0---------------0-----|
D|-0---------------0---------------|
A|---------------------------------|
E|---------------------------------|

Repeat through the whole song except the chorus. i haven't quite figured it out 
yet, but i will post it as soon as i can!

I got this from Timon Klein's Youtube Video. 
 
email me if you have any thoughts or questions, or just want to thank me and say 
how awesome i am. 
i just picked up guitar two months ago, and i don't plan on quitting anytime soon!

thanks!
-Steve.

stephentearoe@yahoo.ca
Tap to rate this tab
# A B C D E F G H I J K L M N O P Q R S T U V W X Y Z