Song name
# A B C D E F G H I J K L M N O P Q R S T U V W X Y Z

Hillsong United - From The Inside Out tab

-------------------------------------------------------------------------------
		       From The Inside Out - Hillsong
-------------------------------------------------------------------------------
Tabbed by: oogah33
Email: oogah3@live.ca

Tuning: Standard

e|-----8--8--8--8--8--8--8--8--8--8--8--8--8--8--8--8------------------------|
B|---- 10-10-10-10-10-10-10-10-10-10-10-10-10-8--8--8/13---------------------|
G|---------------------------------------------------------------------------|
D|---------------------------------------------------------------------------|
A|---------------------------------------------------------------------------|
E|---------------------------------------------------------------------------|

e|--12-12-12-12-12-12-12-13-13-13-13-13-13-13-13-12-12-----------------------|
B|--13-13-13-13-13-13-13-13-13-13-13-13-13-13-13-13-13-----------------------|
G|---------------------------------------------------------------------------|
D|---------------------------------------------------------------------------|
A|---------------------------------------------------------------------------|
E|---------------------------------------------------------------------------|

e|---------------------------------------------------------------------------|
B|--13--12--10h12----13\12--10--10h12------------10-10---12*-----------------|
G|----------------12------------------10--9-9-7-7----------------------------|
D|---------------------------------------------------------------------------|
A|---------------------------------------------------------------------------|
E|---------------------------------------------------------------------------|
* on 12 = x10

e|---------------------------------------------------------------------------|
B|--13-13-12-12-------------------------------------13-13-12-12-13-13/17*----|
G|--------------14-14--12-12-12-12-12-12-12-12-12-12-------------------------|
D|---------------------------------------------------------------------------|
A|---------------------------------------------------------------------------|
E|---------------------------------------------------------------------------|
* on 17 = x10

e|-----------17-17----17-17----17-17----17-17-17/19--19b20br19---------------|
B|--15-15-15-------15-------15-------15--------------------------------------|
G|---------------------------------------------------------------------------|
D|---------------------------------------------------------------------------|
A|---------------------------------------------------------------------------|
E|---------------------------------------------------------------------------|


************************************

| /   slide up
| \   slide down
| h   hammer-on
| p   pull-off
| ~   vibrato
| +   harmonic
| x   Mute note
| b   Bend
| pb  Pre-bend
| br  Bend release
| pbr Pre-bend release
| brb Bend release bend

************************************
Tap to rate this tab
# A B C D E F G H I J K L M N O P Q R S T U V W X Y Z