Song name
# A B C D E F G H I J K L M N O P Q R S T U V W X Y Z

Hillsong United - Thank You tab

Thank You
Hillsong United, A Beautiful Exchange

Key of C

Intro and Verses 1,2, & 3

      C          C         Am        Am         F        F        C          C
e-----------------------------------------|----------------------------------------|
B----1---------1-0-1------1---------1-0-1-|----------------------1---------1-0-1---|
G---0---------0----------2---------2------|----2-0-2----2-0-----0---------0--------|
D--2---3-2---2----------2---3-2---2-------|---3--------3---3---2---3-2---2---------|
A-3---------3----------0---------0--------|--3--------3-------3---------3----------|
E-----------------------------------------|-1--------1-----------------------------|

Verse 1:
       C               
Thank You for Your kindness
       Am                
Thank You for Your mercy
       F                
Thank You for the cross
                        C
Thank You for the price You paid

Verse 2:
       C                
Thank You for salvation
       Am
Thank You for unending grace
       F        
Thank You for Your hope
                       C
Thank You for this life You gave
     c        G
e-----------------|
B----1------------|
G---0----------0--|
D--2---3-2----2---|
A-3----------3----|
E-----------3-----|
    You     Gave

Pre-Chorus: (play top 4 string arpeggios)

(barre on all except "C  G/B" part, those play normal chords)
    Am           F (hi)      C  G/B                                 
There is no one like You
    Am           F (hi)    G
There is no one like You, God
    Am          F (hi)   C  G/B            
All my hope is in You
F (low)   G
Jesus, Jesus

Interlude: C arpeggios *above*

Verse 3:
       C               
Thank You for Your promise 
       Am                
Thank You for Your favor
       F                
And thank You for Your love
                        C
And everything You've done for me

Pre-Chorus: (play top 4 string arpeggios)

(barre on all except "C  G/B" part, those play normal chords) 
    Am           F (hi)      C  G/B                                 
There is no one like You
    Am           F (hi)    G
There is no one like You, God
    Am          F (hi)   C  G/B            
All my hope is in You
F         G       F         G
Jesus, Jesus, Jesus, Jesus
e----------------12-------------------------------------------------------------|
B----13-----13------13h-12h13-13-12--12h13-13-12--12h13-13-12--15-13-12h13------|
G--14--14-14--14----------------------------------------------------------------|
D--------------------------------------------------------------------------(2x)-|
A-------------------------------------------------------------------------------|
E-------------------------------------------------------------------------------|


Chorus: (C chord *d shape* *upper case*)  
	(pinky to d and f *low case*)
C          d
To Your name
C          d        f
We give all the glory
C          d
To Your name
C          d        f
We give all the praise

g          d
You're alive
C          d        f
Our God everlasting
C         Em       C      f
So let Your face shine on us

Pre-Chorus
e---------------|
B---13-----12---|
G-12-----12-----|
D-(6x)----(2x)--|
A---------------|
E---------------|
  *Palm Muted*

    Am              F            C  G    
There is no one like You
    Am              F             G
There is no one like You, God
    Am              F       C  G            
And all my hope is in You
F         G       F         G
Jesus, Jesus, Jesus, Jesus
*built up same as above*

Chorus: (C chord *d shape* *upper case*)  
	(pinky to d and f *low case*)
C          d
To Your name
C          d        f
We give all the glory
C          d
To Your name
C          d        f
We give all the praise

g          d
You're alive
C          d        f
Our God everlasting
C         Em       C      f
So let Your face shine on us

C          d
To Your name
C          d        f
We give all the glory
C          d
To Your name
C          d        f
We give all the praise

g          d
You're alive
C          d        f
Our God everlasting
C         Em       C      f
So let Your face shine on us
C         Em       C      f
So let Your face shine on us
C         Em       C      f
So let Your face shine on us

Outro
e---------------|
B---13-----13---|
G-9------10-----| repeat til end
D-(2x)----(6x)--|
A---------------|
E---------------|
  *Palm Muted*
Tap to rate this tab
 
# A B C D E F G H I J K L M N O P Q R S T U V W X Y Z