Song name
# A B C D E F G H I J K L M N O P Q R S T U V W X Y Z

Hillsong United - Oh You Bring tab

-----------------------------------------------------------------------------------
                             Oh You Bring  Hillsong United
Artist: Hillsong United
Album: Across the Earth: Tear Down the Walls
Song: Oh You Bring
Tabbed by:Yor3
Standard Tuning:EADGBE
Capo 7th fret
Intro
Verse 1
Chorus 1
Intro
Verse 2
Chorus 2a
Loop Around
Chorus 2b
Instrumental
Bridge
Chorus 1
Intro

Intro: X4 and X1 between Chorus 1 into verse 2
e|-0---0--0---0--0---0----0-----0----0----0----0-----------------------------|
B|----------------------/6--1-----1----1------3------------------------------|
G|---0------0------0----------0-----0----0-----------------------------------|
D|---------------------------------------------------------------------------|
A|-3------3------3------/5--0-----0----0------2------------------------------|
E|---------------------------------------------------------------------------|
Verse 1 & 2:
e|-0---0--0---0--0---0--0---0-----0------0-----0-----0----0---0--------------|
B|----------------------------3------3-----3-----3-----6---6-----------------|
G|---0------0------0------0-----0------0-----0-----0-----5---5---------------|
D|-----------------------------------------------------0---------------------|
A|-3------3------3------3----------------------------------------------------|
E|----------------------------3------3-----3-----3---------------------------|

e|-----0-----0-------0----0-----3------3-------------------------------------|
B|-1-----1-------1-----1-----1----1p0----------------------------------------|
G|---0-----0-------2-----2-----0------0--------------------------------------|
D|---------------------------------------------------------------------------|
A|-0-----0-------------------------------------------------------------------|
E|---------------1-----1-----3-----------------------------------------------|
Chorus 1;2a;2b
e|----0----0-----3------------0-----0--0--0-1-0--0---0-0---0-3~--------------|
B|-1----1-----3----0---0--1-----3------1---------1-------------------------- |
G|---2----2-----0----0------0-----0------0---------2-----2-------------------|
D|-----------------------------------------------3-----3---------------------|
A|------------------------0-----2------3-------------------------------------|
E|-1----------3----------------------------------------------3~--------------|






LoopAround: 2nd Chorus that loops back into chorus
Play at end of G/Chorus From 2a to 2b
e|---------------3------------0-----0--0--0-1-0--0---0-0---0-3~--------------|
B|-----------3-----0---0-1------3------1---------1---------------------------|
G|-------------0-----0------0-----0------0---------2-----2-------------------|
D|-----------------------------------------------3-----3---------------------|
A|-----------------------0------2------3-------------------------------------|
E|-----------3-----------------------------------------------3~--------------|
Instrumental Part 1: Pre-solo
e|-x-x-xx-x-x-xx-----0---------------------0--0-0-00-0-0-00-11-0--------------------|
B|-1-1-11-1-1-11--33-----1-1-1-1--1-1-1/3\1---1-1-11-1-1-33-33---1-1-1-1--1-1-1/3\1-|
G|-0-0-00-0-0-00--22--------------------------0-0-00-0-0-00-22---2------------------|
D|-x-x-xx-x-x-xx--00--------2--------2--------x-x-xx-x-x-xx------2--2---------------|
A|-3-3-33-3-3-33------------------------------3-3-33-3-3-33------0------------------|
E|----------------------------------------------------------------------------------|
Instrumental Part 2:Solo
e|-----------------------------------------------------------------------------|
B|------------------------------1----------------------------------------------|
G|-----------------------------------------------------------------------------|
D|--------2~---------/3-2-0--0h2-2~-2-2-2-2-2~---------------------------------|
A|-/3--33----2~-3-33-------3---------------------------------------------------|
E|-----------------------------------------------------------------------------|

e|---------------------------------------------------------------------------|
B-1h3-3/5-3p1-1h3/5~5~55~5~5~55~5/6\5-3\1-3/5~5~55~5~5~55~5~5~-3-6-5~--------|
G|---------------------------------------------------------------------------|
D|---------------------------------------------------------------------------|
A|---------------------------------------------------------------------------|
E|---------------------------------------------------------------------------|
Bridge X6
e|-0---0--0---0--0---0--0---0-----0------0-----0-----0-----0-----0-----------|
B|----------------------------3------3-----3-----3-----6-----6---------------|
G|---0------0------0------0-----0------0-----0-----0-----5-----5-------------|
D|-----------------------------------------------------0-----0---------------|
A|-3------3------3------3----------------------------------------------------|
E|----------------------------3------3-----3-----3---------------------------|

e|-----0-----0-------0-----0-----0-----0-------------------------------------|
B|-1-----1-------1-----1-----1-----1-----------------------------------------|
G|---0-----0-------2-----2-----2-----2---------------------------------------|
D|---------------------------------------------------------------------------|
A|-0-------------------------------------------------------------------------|
E|---------------1-----1-----1-----1-----------------------------------------|
Build up up bridge: Quiet strum
e|-----------------0---------------xxxxxx---------0--------------------------------|
B|-------------------------1--1-1--111111----0---------1--1------------------------|
G|----------0-----0------------0-0-000000---0----0-------0-0-----------------------|
D|---------0-----3-------3---------xxxxxx--0----3----------------------------------|
A|---3-----------------------------333333-------------3----------------------------|
E|-0------3-------------1----------------------------1-----------------------------|

e|-xxxxxx-----------------------------------0--0--0--0-----------------------|
B|-111111-1-1-1-1---3--3-3-3-3--3-3-3-3-3----1--1--1--1------------1---------|
G|-0000000-0-0-0------0-0-0-0----2-2-2-2------0--0--0--0---------------------|
D|-xxxxxx----------0--------------0-0-0-0---3--3--3--3----3-2-3-2h3----------|
A|-333333---------2----------------------------------------------------------|
E|---------------3-----------------------------------------------------------|


************************************

| /   slide up
| \   slide down
| h   hammer-on
| p   pull-off
| ~   vibrato
| +   harmonic
| x   Mute note
| b   Bend
| pb  Pre-bend
| br  Bend release
| pbr Pre-bend release
| brb Bend release bend

************************************
Tap to rate this tab
# A B C D E F G H I J K L M N O P Q R S T U V W X Y Z