Song name
# A B C D E F G H I J K L M N O P Q R S T U V W X Y Z

Hillsong United - Your Name High tab

-------------------------------------------------------------------------------
                             Your name high(live) - hillsong united
-------------------------------------------------------------------------------
Tabbed by: AwakenTabs
E-mail: calvinbarkerGSK@gmail.com

Tuning:standard
1/4 notes

        inro x6                  0:21 main riff
e|------------------9-9-9-9------------------9-9---------9-9-----------------|
B|------10-10-10-10--------------10-10-10-10-----9-9-7-7-----10-10-9-9-7-7---|
G|---------------------------------------------------------------------------|
D|---------------------------------------------------------------------------|
A|---------------------------------------------------------------------------|
E|---------------------------------------------------------------------------|
   riff 2nd time
e|-------------9-9---------9-9-----------------------------------------------|
B|-10-10-10-10-----9-9-7-7-----10-10-9-9-10 ~ ~ ~ ---------------------------|
G|---------------------------------------------------------------------------|
D|---------------------------------------------------------------------------|
A|---------------------------------------------------------------------------|
E|---------------------------------------------------------------------------|
   living to make you high x4     we are free x2
e|-9-9-9-9------------------------------------9-9-9-9------------------------|
B|---------9-9-7-7----------------10-10-10-10--------------------------------|
G|---------------------------------------------------------------------------|
D|---------------------------------------------------------------------------|
A|---------------------------------------------------------------------------|
E|---------------------------------------------------------------------------|



************************************

| ~ let ring
| x mute

************************************
Tap to rate this tab
# A B C D E F G H I J K L M N O P Q R S T U V W X Y Z