Song name
# A B C D E F G H I J K L M N O P Q R S T U V W X Y Z

Hillsong United - Lead Me To The Cross tab

Intro/Outro
e --------------------------------------------------------------------|
a --------------------------------------------------------------------|
d --------------------------------------------------------------------|
g ---11--12--11--12---------------------------------------------------|
b ----------------------12--14--12--14--------------------------------|
e ------------------------------------------14------------------------|

e ------------------------------------------------------------------|
a ------------------------------------------------------------------|
d ------------------------------------------------------------------|
g ---11--12--11--12----------------------12---------14--11----------|
b ----------------------12--14--12--14-------15---------------------|
e ------------------------------------------------------------------|

Pre-Bridge

e ------------------------------------------------------------------------|
a ------------------------------------------------------------------------|
d ------------------------------------------------------------------------|
g -12-12-12-12-12-12-12-12------------------------------------------------|
b --------------------------------12-12-12-12-----------------------------|
e -------------------------------------------------10-10-10-10-14---------|

Bridge

e ------------------------------------------------------------------|
a ------------------------------------------------------------------|
d ------------------------------------------------------------------|
g -----12---12---12---12---12---12----12----------------------------|
b --14---14---14---14---16---16---16---16---------------------------|
e-------------------------------------------------------------------|

Chorus

e -----------------------------------------------------------------|
a -----------------------------------------------------------------|
d -----------------------------------------------------------------|
g -----------------------------------------------------------------|
b -----------------------------------------------------------------|
e -14-14-14-14-14-14-14-14-14-14-14-14-14-14-14-12-12-12-12-12-12--|


e ----------------------------------------------------|
a ----------------------------------------------------|
d ----------------------------------------------------|
g ----------------------------------------------------|
b ----------------------------------------------------|
e-12-12-12-12-12-12-12-12-12-17-17-17-17-15-15-15-15--|(multiple times)
Tap to rate this tab
# A B C D E F G H I J K L M N O P Q R S T U V W X Y Z