Song name
# A B C D E F G H I J K L M N O P Q R S T U V W X Y Z

Hillsong United - Hosanna tab

Intro:
E|---------4--------4-------------------------|------------------------------------------------|
B|------5------5h7------------4----------4--|-------------5-----5---------------4-----------4--|
G|---6------6---------------4-------4h6-----|----------6------6---6----------4--------4h6------|
D|-------------------------6-------6----------|----6/7-----------------------6-------6---------|
A|---------------------------------------------|-----------------------------------------------|
E|---------------------------------------------|-----------------------------------------------|

E|--------4------4------------------------|------------------7----------------------9--|
B|------5----5h7-----------4--------4---|----------5---------5------------7------------|
G|---6-----6--------------4-----4h6-----|--------6-----6----------------8-----8--------|
D|-----------------------6-----6----------|---6/7----------------------9---------------|
A|-----------------------------------------|-------------------------------------------|
E|-----------------------------------------|-------------------------------------------|

Verse I:
E
I see the King of glory
C#m
Coming down the clouds with fire
                               F#m                             B
The whole earth shakes, the whole earth shakes

E|----------4-------4---4------4---4------4---7-----7--5--------------|
B|-------5------------5----------5-----------5---------5--------------|
G|----6---------------------------------------------------------------|
D|--------------------------------------------------------------------|
A|--------------------------------------------------------------------|
E|--------------------------------------------------------------------|

Verse II:
E
I see His love and mercy
C#m
Washing over all our sins
                   F#m                  B
The people sing, the people sing

Chorus:
       E       A
Ho-sa.....nna
       B       C#m
Ho-sa.....nna
     A                  C#m- B
Hosanna in the Highest
      E       A
Ho-sa.....nna
      B       C#m
Ho-sa.....nna
      A                  B
Hosanna in the Highest

E|---------4-----4---4-----4--4----4--7-----7--5-------------|
B|-------5---------5---------5--------5--------5-------------|
G|-----6-----------------------------------------------------|
D|-----------------------------------------------------------|
A|-----------------------------------------------------------|
E|-----------------------------------------------------------|

Verse III:
E
I see a generation
C#m
Rising up to take their place
                      F#m                       B
With selfless faith, with selfless faith

E
I see a near revival
C#m
Staring as we pray and seek
                        A                            B
We're on our knees, we're on our knees

(Repeat Chorus)

Solo:
E|-------------------------------------------------------------------------------|
B|-----/12-12-12-12-12------9-7-9-----12-12-12-12-12-----9-7-9-------------------|
G|-------------------------------------------------------------------------------|
D|-------------------------------------------------------------------------------|
A|-------------------------------------------------------------------------------|
E|-------------------------------------------------------------------------------|

E|---------------------------------------------------------------|
B|-----10-10-10-10-10-----9-7-5-4-4-4----4-5-7-------------------|
G|---------------------------------------------------------------|
D|---------------------------------------------------------------|
A|---------------------------------------------------------------|
E|---------------------------------------------------------------|

E|-----------------------------------------------------------------------------|
B|-----12-12--12/14-12---9-7-9-----12-12--12/14-12---9-7-9---------------------|
G|-----------------------------------------------------------------------------|
D|-----------------------------------------------------------------------------|
A|-----------------------------------------------------------------------------|
E|-----------------------------------------------------------------------------|

E|-------------11-----11------11-12-14-14-14-14-14\----------------|
B|-----10--10-----10------10---------------------------------------|
G|-----------------------------------------------------------------|
D|-----------------------------------------------------------------|
A|-----------------------------------------------------------------|
E|-----------------------------------------------------------------|

Bridge:
A                                         B
Heal my heart and make it clean
E                                     C#m
Open up my eyes to the things unseen
A                                     B                            C#m
Show me how to love like You have loved me

A                                                B
Break my heart for what breaks Yours
E                                            C#m
Everything I am for Your Kingdom's cause
A                               B
As I walk the earth into eternity

E|---------------9--------------9-------------|
B|-----------12---12-------12----12-----------|
G|--------9----------9---9--------------------|
D|-----11--------------11---------------------|
A|--------------------------------------------|
E|--------------------------------------------|

(Repeat Chorus)
Outro:
E            A
Ho-sa.....nna
B           C#m
Ho-sa.....nna
A                     C#m- B
Hosanna in the Highest

E            A
Ho-sa.....nna
B           C#m
Ho-sa.....nna
A                     B          C#m
Hosanna in the High----est
A                     B         E
Hosanna in the Highest
Tap to rate this tab
 
# A B C D E F G H I J K L M N O P Q R S T U V W X Y Z