Song name
# A B C D E F G H I J K L M N O P Q R S T U V W X Y Z

Hillsong United - Still tab

    F                 Am7          C       G
e|----------------------------------------------------------|
B|--6-5h6------6-5h6---------5-3h5-3-3--5--7----------------|
G|--------5-5---------5-5---------------------7--7----------|
D|----------------------------------------------------------|
A|----------------------------------------------------------|
E|----------------------------------------------------------|
           F           Am7         C   G       
e|----------------------------------------------------------|
B|--6--5h6------6-5h6--------5-5h6-----7--------------------|
G|---------5-5---------5--5--------5------7---9-------------|
D|----------------------------------------------------------|
A|----------------------------------------------------------|
E|----------------------------------------------------------|
Tap to rate this tab
# A B C D E F G H I J K L M N O P Q R S T U V W X Y Z