Song name
# A B C D E F G H I J K L M N O P Q R S T U V W X Y Z

Hillsong United - The Stand tab

Artist: Hillsong United
Album: United We Stand
Tabber: Jajai
Key: D

Intro : A

Verse: A - D - A/C# - F#m - D

Pre Chorus:

Guitar 1: Bm - F#m - D - E - *F#m
*Don't include when going to Chorus.

Guitar 2:Listen to the song for timing. =)
e-----------------------------------------|
B----7---9---10---9---7---9---10---9------|
G-----------------------------------------|
D--7---9---11---9---7---9---11---9--------|
A-----------------------------------------|
E-----------------------------------------|

Interlude: D - A - E - F#m

Guitar 2:
e---9---9---12--12----7---7---10---9--10--|
B-----10--10--10---10--10--10---10--------|
G-----------------------------------------|
D-----------------------------------------|
A-----------------------------------------|
E-----------------------------------------|

Chorus: D - A - E - F#m

Guitar 2: Go for Inversions. =D




-- Well that's it. Comment/Rate please. =D
Godbless!!!
Tap to rate this tab
 
# A B C D E F G H I J K L M N O P Q R S T U V W X Y Z