Song name
# A B C D E F G H I J K L M N O P Q R S T U V W X Y Z

Hillsong United - I Surrender tab

*****CAPO FIRST FRET.******* Add Delay and palm mute as you play. These are just the 
notes I don't want to tab the pattern - figure it out for yourself. It is easy! Go listen 
to the song and you will here it! Or go to http://www.youtube.com/watch?v=HcnfT4arZtI

Intro
e)------------]
b)---5--4-2-0-]
g)-1----------]x2
d)------------]
a)------------]
E)------------]
Then play this right after.

e)------------------------------]
b)---5--4-2-0------5--4-2-0-----]
g)---------------2--------------]
d)-4----------------------------]
a)------------------------------]
E)------------------------------]

Then later in the song there is a variation of the intro. It occurs at 6:12


e)---------------------------------------------------------------]
b)---5--4-2-0-------4--2-0------5--4-2-0------5--4-2-0-----------]
g)-1-------------1--------1----------------2---------------------]
d)----------------------------4----------------------------------]
a)---------------------------------------------------------------]
E)---------------------------------------------------------------]

*****REMEMBER, THESE ARE JUST THE NOTES! YOU HAVE TO FIGURE OUT THE PATTERN BY LISTENING 
TO THE SONG!******
Tap to rate this tab
 
# A B C D E F G H I J K L M N O P Q R S T U V W X Y Z