Song name
# A B C D E F G H I J K L M N O P Q R S T U V W X Y Z

Hillsong United - My Future Decided tab

Song: My Future Decided
Artist: Hillsong United
Album: All of the Above
Tabber: Jajai
Key: A


Intro: keyboard first, but same riffs.

e--------------------------------------------------------|
B--------------------------------------------------------|
G--------------------------------------------------------| (4x i guess)
D--------------------------------------------------------|
A--44-----------44----5544-------------------------------|
E-----222222222----22------555555555577777---------------|

Verse: F#m - A - D - A - F#m

Guitar 2: clean
e------9------9-----9-----9-----10-----10------9------9------9----|
B----10-10--10-10-10-10-10-10-10--10-10--10--10-10--10-10--10-10--|
G--11-----11-----9-----9-----9------9------11-----11-----11-------|
D-----------------------------------------------------------------|
A-----------------------------------------------------------------|
E-----------------------------------------------------------------|

Pre Chorus: D - A - F#m - D - A - E
^ - bend
use picking tech.
e-----------------------------------------------------------------|
B--101010101099999991010101010----9---10---12---------------------|
G--------------------------------12^--13^--15^--------------------|
D-----------------------------------------------------------------|
A-----------------------------------------------------------------|
E-----------------------------------------------------------------|

Chorus: D - A - F#m
        D - A - F#m
        D - A - E
        D - A -(E)

Solo: Use picking again

e---------121212------------------171717161616----------------------------|
B--12s1414------------------------------------17171717----------12121212--|
G---------------141414131313141414--------------------1414141414----------|
D-------------------------------------------------------------------------|
A-------------------------------------------------------------------------|
E-------------------------------------------------------------------------|

e---------121212------------------171717161616----------------------------|
B--12s1414------------------------------------17171717-----------5--3-----|
G---------------141414131313141414--------------------1414141414-8^--6^-6-|
D-------------------------------------------------------------------------|
A-------------------------------------------------------------------------|
E-------------------------------------------------------------------------|


---------------------------i'll update this later. i'm tired. LOL

Comment/rate please. mail me if there's any correction. =D
Tap to rate this tab
 
# A B C D E F G H I J K L M N O P Q R S T U V W X Y Z