Song name
# A B C D E F G H I J K L M N O P Q R S T U V W X Y Z

Hillsong United - Scandal Of Grace tab

Artist: Hillsong United
Album: Zion
Song: Scandal of Grace

Tabbed by: frenchboy/magicberu


Verse 1:  just play these chords ( C  Am  F  C ).



Pre-chorus (...too much to make sense... / 0:28):

e|---------------------------------------------------------------------------|
B|----0-------1----------------------0-------1-------------------------------|
G|--0-------2--------0-------------0-------2---------0-----------------------|
D|2-------3--------2-------------2-------3---------2-------------------------|
A|---------------3-------------------------------3---------------------------|
E|---------------------------------------------------------------------------|

(The scandal of grace... / 0:40):

e|---------------------------------------------------------------------------|
B|----3----3--------5----5---------1-----------------------------------------|
G|--4----4--------5----5---------2-------------------------------------------|
D|5-------------7--------------3---------------------------------------------|
A|---------------------------------------------------------------------------|
E|---------------------------------------------------------------------------|



Chorus (Quick picking):

e|12...................15......----------------------------------------------|
B|-----------------------------12...................-------------------------|
G|---------------------------------------------------------------------------|
D|---------------------------------------------------------------------------|
A|---------------------------------------------------------------------------|
E|---------------------------------------------------------------------------|

e|15......17...................----------------------------------------------|
B|---------------------------------------------------------------------------|
G|---------------------------------------------------------------------------|
D|---------------------------------------------------------------------------|
A|---------------------------------------------------------------------------|
E|---------------------------------------------------------------------------|

Normal notes:
e|----------8----------------------------------------------------------------|
B|------6--------------------8-----------------------------------------------|
G|9-7-9------------9-7-9-----------------------------------------------------|
D|-----------------------10--------------------------------------------------|
A|---------------------------------------------------------------------------|
E|---------------------------------------------------------------------------|


Verse 2 & Pre-chorus 2 (same progession as the first verse & pre-chorus)



Chorus (1:59):

Quick picking:
e|12...................15......----------------------------------------------|
B|-----------------------------12...................-------------------------|
G|---------------------------------------------------------------------------|
D|---------------------------------------------------------------------------|
A|---------------------------------------------------------------------------|
E|---------------------------------------------------------------------------|

e|15....../17...................---------------------------------------------|
B|---------------------------------------------------------------------------|
G|---------------------------------------------------------------------------|
D|---------------------------------------------------------------------------|
A|---------------------------------------------------------------------------|
E|---------------------------------------------------------------------------|

Normal notes:
e|---------------------------------------------------------------------------|
B|---------------------------------------------------------------------------|
G|9-7-9------------9-7-9-----------------------------------------------------|
D|------10---------------10--------------------------------------------------|
A|---------------------------------------------------------------------------|
E|---------------------------------------------------------------------------|

Quick picking:
e|12...................15......----------------------------------------------|
B|-----------------------------12...................-------------------------|
G|---------------------------------------------------------------------------|
D|---------------------------------------------------------------------------|
A|---------------------------------------------------------------------------|
E|---------------------------------------------------------------------------|

e|15....../17...................---------------------------------------------|
B|---------------------------------------------------------------------------|
G|---------------------------------------------------------------------------|
D|---------------------------------------------------------------------------|
A|---------------------------------------------------------------------------|
E|---------------------------------------------------------------------------|

Normal notes:
e|----------8-----------------------------------8----------------------------|
B|------6--------------------8--------------6----------------------8---------|
G|9-7-9------------9-7-9--------------9-7-9--------------9-7-9---------------|
D|-----------------------10------------------------------------10------------|
A|---------------------------------------------------------------------------|
E|---------------------------------------------------------------------------|



Bridge:  C  G  Am  F


Chorus (3:14-3:37):

Quick picking:
e|12...................15......----------------------------------------------|
B|-----------------------------12...................-------------------------|
G|---------------------------------------------------------------------------|
D|---------------------------------------------------------------------------|
A|---------------------------------------------------------------------------|
E|---------------------------------------------------------------------------|

e|15....../17...................---------------------------------------------|
B|---------------------------------------------------------------------------|
G|---------------------------------------------------------------------------|
D|---------------------------------------------------------------------------|
A|---------------------------------------------------------------------------|
E|---------------------------------------------------------------------------|

Normal notes:
e|---------------------------------------------------------------------------|
B|---------------------------------------------------------------------------|
G|9-7-9------------9-7-9-----------------------------------------------------|
D|------10---------------10--------------------------------------------------|
A|---------------------------------------------------------------------------|
E|---------------------------------------------------------------------------|





************************************

| /   slide up

************************************
Tap to rate this tab
# A B C D E F G H I J K L M N O P Q R S T U V W X Y Z