Song name
# A B C D E F G H I J K L M N O P Q R S T U V W X Y Z

Hillsong United - Go tab

Intro and Verse 1 (Repeat it again and again)

E|-------X--X--X--X--X--X--X--X--X------|
B|-------X--X--X--X--X--X--X--X--X------|
G|-------X--X--X--X--X--X--X--X--X------|
D|-------9--9--9--9--9--9--9--9--9------|
A|-------X--X--X--X--X--X--X--X--X------|
e|-------7--7--7--7--7--7--7--7--7------|

Pre-chorus {Lead Guitar}                     {Rhythm Guitar}

E|--14-----------------------  E|--0---4---2---4---0---4---2---2-|
B|-------14---16---12--------  B|--0---4---2---4---0---4---2---2-|
G|---------------------11----  G|--0---4---4---4---0---4---2---2-|
D|---------------------------  D|--2---6---4---6---2---6---4---4-|
A|---------------------------  A|--2---6---2---6---2---6---4---4-|
e|---------------------------  e|--0---4---X---4---0---4---2---2-|

Chorus 1

E|-------X--X--X--X--X--X--X--X--X------|
B|-------X--X--X--X--X--X--X--X--X------|
G|-------X--X--X--X--X--X--X--X--X------|
D|-------9--9--9--9--9--9--9--9--9------|
A|-------X--X--X--X--X--X--X--X--X------|
e|-------7--7--7--7--7--7--7--7--7------|

(Then...)

E|-------------------------------------|
B|-------------------------------------|
G|-------------------------------------|
D|----------------6--------------------|
A|-------------------7---7---7/9---9---|
e|--7---7---4--7-----------------------|

Verse 2 [Same as the Intro and Verse 1]

Pre-chorus

Chorus 2

                                      ...all to go, Your way
E|-------0--0--0--0--0--0--0--0--0--------0------4------0-----|
B|-------0--0--0--0--0--0--0--0--0--------0------4------0-----|
G|-------0--0--0--0--0--0--0--0--0--------0------4------0-----|
D|-------9--9--9--9--9--9--9--9--9--------2------6------2-----|
A|-------0--0--0--0--0--0--0--0--0--------2------6------2-----|
e|-------7--7--7--7--7--7--7--7--7--------0------4------0-----|

Bridge   {Lead Guitar}                     {Rhythm Guitar}

                                 Just do the chords...
E|--14-----------------------|
B|-------14---16---12--------|         C#m, E, F#m, F#m, [Repeat 3x, then...]
G|---------------------11----|         E, C#
D|---------------------------|
A|---------------------------|
e|---------------------------|

Chorus 3 [Repeat Chorus 2]
Tap to rate this tab
# A B C D E F G H I J K L M N O P Q R S T U V W X Y Z