Song name
# A B C D E F G H I J K L M N O P Q R S T U V W X Y Z

Hillsong United - Oceans Where Feet May Fail tab

e|----------0---------------0-----------------0---------------0-------|
B|------7-------7-------7-----7---7-------7-------7-------7-----7---7-|
G|----7---7---7---7---7---7-----7-------7---7---7---7---7---7-----7---|
D|--9---------------9-----------------7---------------7---------------|
A|--------------------------------------------------------------------|
E|--------------------------------------------------------------------|

e|----------0---------------0-----------------0---------------0-------|
B|------5-------5-------5-----5---5-------8-------8-------8-----8---8-|
G|----6---6---6---6---6---6-----6-------7---7---7---7---7---7-----7---|
D|--7---------------7-----------------9---------------9---------------|
A|--------------------------------------------------------------------|
E|--------------------------------------------------------------------|
Tap to rate this tab
 
# A B C D E F G H I J K L M N O P Q R S T U V W X Y Z