Song name
# A B C D E F G H I J K L M N O P Q R S T U V W X Y Z

Hillsong United - Mercy Mercy Acoustic tab

Artist: Hillsong United
Album: Zion Acoustic Sessions
Song: Mercy Mercy (Acoustic Version)

Tabbed by: Frenchboy/magicberu

Tuning: Standard (eBGDAE)


Capo 2 | Key: A




Intro and interludes:


e|---------------------------------------------------------------------------|
B|-----8---8---------------8---8------------------3---3----------------------|
G|---0-------0---0-------0-------0---0----------0-------0---0----------------|
D|---------------------------------------------------------------------------|
A|-7-----7-----7-------7-----7-----7---------\2-----2-----2------------------|
E|---------------------------------------------------------------------------|

e|---------------------------------------------------------------------------|
B|-----5---5-----------------3---3------------------3---3--------------------|
G|---0-------0---0---------0-------0---0----------0-------0---0--------------|
D|---------------------------------------------------------------------------|
A|/3-----3-----3-------------------------------------------------------------|
E|-----------------------3-----3-----3----------3-----3-----3----------------|

e|---------------------------------------------------------------------------|
B|------------------3---3----------------------3---3-------------------------|
G|----------------0-------0---0--------------0-------0---0-------------------|
D|---------------------------------------------------------------------------|
A|---------------------------------------------------------------------------|
E|--------------3-----3-----3--------------3-----3-----3---------------------|



Verses:

e|---------------------------------------------------------------------------|
B|-----8---8---------------8---8------------------3---3----------------------|
G|---0-------0---0-------0-------0---0----------0-------0---0----------------|
D|---------------------------------------------------------------------------|
A|-7-----7-----7-------7-----7-----7---------\2-----2-----2------------------|
E|---------------------------------------------------------------------------|

e|---------------------------------------------------------------------------|
B|-----5---5-----------------3---3------------------3---3--------------------|
G|---0-------0---0---------0-------0---0----------0-------0---0--------------|
D|---------------------------------------------------------------------------|
A|/3-----3-----3-------------------------------------------------------------|
E|-----------------------3-----3-----3----------3-----3-----3----------------|

e|---------------------------------------------------------------------------|
B|------------------3---3----------------------3---3-------------------------|
G|----------------0-------0---0--------------0-------0---0-------------------|
D|---------------------------------------------------------------------------|
A|---------------------------------------------------------------------------|
E|--------------3-----3-----3--------------3-----3-----3---------------------|

e|---------------------------------------------------------------------------|
B|-----8---8---------------8---8------------------3---3----------------------|
G|---0-------0---0-------0-------0---0----------0-------0---0----------------|
D|---------------------------------------------------------------------------|
A|-7-----7-----7-------7-----7-----7---------\2-----2-----2------------------|
E|---------------------------------------------------------------------------|

e|---------------------------------------------------------------------------|
B|-----5---5-----------------3---3------------------3---3--------------------|
G|---0-------0---0---------0-------0---0----------0-------0---0--------------|
D|---------------------------------------------------------------------------|
A|/3-----3-----3-------------------------------------------------------------|
E|-----------------------3-----3-----3----------3-----3-----3----------------|

e|---------------------------------------------------------------------------|
B|------------------3---3----------------------3---3-------------------------|
G|----------------0-------0---0--------------0-------0---0-------------------|
D|---------------------------------------------------------------------------|
A|---------------------------------------------------------------------------|
E|--------------3-----3-----3--------------3-----3-----3---------------------|

e|---------------------------------------------------------------------------|
B|-----8---8---------------8---8------------------3---3----------------------|
G|---0-------0---0-------0-------0---0----------0-------0---0----------------|
D|---------------------------------------------------------------------------|
A|-7-----7-----7-------7-----7-----7---------\2-----2-----2------------------|
E|---------------------------------------------------------------------------|

e|---------------------------------------------------------------------------|
B|-----5---5-----------------3---3------------------3---3--------------------|
G|---0-------0---0---------0-------0---0----------0-------0---0--------------|
D|---------------------------------------------------------------------------|
A|/3-----3-----3-------------------------------------------------------------|
E|-----------------------3-----3-----3----------3-----3-----3----------------|

e|---------------------------------------------------------------------------|
B|------------------1---1----------------------0---0-------------------------|
G|----------------0-------0---0--------------0-------0---0-------------------|
D|---------------------------------------------------------------------------|
A|---------------------------------------------------------------------------|
E|--------------3-----3-----3--------------3-----3-----3---------------------|

e|---------------------------------------------------------------------------|
B|-----8---8---------------8---8------------------3---3----------------------|
G|---0-------0---0-------0-------0---0----------0-------0---0----------------|
D|---------------------------------------------------------------------------|
A|-7-----7-----7-------7-----7-----7---------\2-----2-----2------------------|
E|---------------------------------------------------------------------------|

e|---------------------------------------------------------------------------|
B|-----5---5-----------------3---3------------------3---3--------------------|
G|---0-------0---0---------0-------0---0----------0-------0---0--------------|
D|---------------------------------------------------------------------------|
A|/3-----3-----3-------------------------------------------------------------|
E|-----------------------3-----3-----3----------3-----3-----3----------------|

e|---------------------------------------------------------------------------|
B|------------------3---3----------------------3---3-------------------------|
G|----------------0-------0---0--------------0-------0---0-------------------|
D|---------------------------------------------------------------------------|
A|---------------------------------------------------------------------------|
E|--------------3-----3-----3--------------3-----3-----3---------------------|



Pre-chorus:

e|---------------------------------------------------------------------------|
B|-----7---7---------------7---7---------------7---7--------------7---7------|
G|---0-------0---0-------0-------0---0-------0-------0---0------0-------0---0|
D|---------------------------------------------------------------------------|
A|-5-----5-----5-------5-----5-----5-------5-----5-----5------5-----5-----5--|
E|---------------------------------------------------------------------------|

e|---------------------------------------------------------------------------|
B|-----5---5---------------5---5---------------3---3--------------3---3------|
G|---0-------0---0-------0-------0---0-------0-------0---0------0-------0---0|
D|---------------------------------------------------------------------------|
A|\3-----3-----3-------3-----3-----3-----------------------------------------|
E|-----------------------------------------3-----3-----3------3-----3-----3--|

e|---------------------------------------------------------------------------|
B|-----7---7---------------7---7---------------7---7--------------7---7------|
G|---0-------0---0-------0-------0---0-------0-------0---0------0-------0---0|
D|---------------------------------------------------------------------------|
A|-5-----5-----5-------5-----5-----5-------5-----5-----5------5-----5-----5--|
E|---------------------------------------------------------------------------|

e|---------------------------------------------------------------------------|
B|-----5---5---------------5---5---------------5---7-------------------------|
G|---0-------0---0-------0-------0---0-------0-------0---0-------------------|
D|---------------------------------------------------------------------------|
A|-3-----3-----3-------3-----3-----3-------3-----3-----3---------------------|
E|---------------------------------------------------------------------------|


Chorus (x2)[x4 the second time]:

e|---------------------------------------------------------------------------|
B|-----0---0-------------0---0---------------3---3-------------3---3---------|
G|---0-------0---0-----0-------0---0-------0-------0---0-----0-------0---0---|
D|---------------------------------------------------------------------------|
A|---------------------------------------------------------------------------|
E|-0-----0-----0-----0-----0-----0-------3-----3-----3-----3-----3-----3-----|
  
e|---------------------------------------------------------------------------|
B|-----5---5---------------5---5---------------1---1--------------1---1------|
G|---0-------0---0-------0-------0---0-------0-------0---0------0-------0---0|
D|---------------------------------------------------------------------------|
A|-3-----3-----3-------3-----3-----3-------0-----0-----0------0-----0-----0--|
E|---------------------------------------------------------------------------|




Ending:

e|---------------------------------------------------------------------------|
B|-8----------\3------------/5-------------3-------------1-0-----------------|
G|---------------------------------------------------------------------------|
D|---------------------------------------------------------------------------|
A|-7----------\2------------/3-----------------------------------------------|
E|-----------------------------------------3---------------------------------|

e|---------------------------------------------------------------------------|
B|-8----------------\3-------------/5-------------3--------------------------|
G|---------------------------------------------------------------------------|
D|---------------------------------------------------------------------------|
A|-7----------------\2-------------/3----------------------------------------|
E|------------------------------------------------3--------------------------|


************************************

| /   slide up
| \   slide down

************************************
Tap to rate this tab
 
# A B C D E F G H I J K L M N O P Q R S T U V W X Y Z