Song name
# A B C D E F G H I J K L M N O P Q R S T U V W X Y Z

Hillsong United - A Song To Sing tab

Hillsong United
Album: Live In Miami
Song: A Song To Sing...


Intro:

E:----------7-----------------------------7-------------|
B:--9---9-------11--9-------------9---9------11--9------|
G:---8---8------------11-----------8---8-----------11---|
D:------------------------------------------------------|
A:------------------------------------------------------|
E:------------------------------------------------------|

E:----------7-----------------------------7-------------|
B:--7---7-------11--9-------------7---7------11--9------|
G:---8---8------------11-----------8---8-----------11---|
D:------------------------------------------------------|
A:------------------------------------------------------|
E:------------------------------------------------------|

Use some combo of delay/chorus and very soft distortion!



Thatīs one of my favourite intro parts Hillsong did, been searching for it a while and 
couldnīt find it, so i tried to write it myself!
Hope you enjoy it :)


Thatīs my first tab, sorry if itīs not fitting exactly ;)
Be blessed!!!

Andrew Bishop
Tap to rate this tab
# A B C D E F G H I J K L M N O P Q R S T U V W X Y Z