Song name
# A B C D E F G H I J K L M N O P Q R S T U V W X Y Z

Hillsong United - Oceans Where Feet May Fail tab

-----------------------------------------------------------------------------
    Oceans (Where Feet May Fail)- Hillsong United
-------------------------------------------------------------------------------
Tabbed By: JV
Tuning: Standard

Intro

         
e|-----------7----------7-----------7----------9-----------10------|
B|-----------------------------------------------------------------|
G|--------7----------7-----------7----------9-----------11---------|
D|-----------------------------------------------------------------|
A|-----------------------------------------------------------------|
E|-----7-------7--7-------7--7---------7--9-------9--10------------|


          

e|------------10---------10------------10----------5----------5----|
B|-----------------------------------------------------------------|
G|---------11---------11------------11----------6----------6-------|
D|-----------------------------------------------------------------|
A|-----------------------------------------------------------------|
E|-10--10-------10--10------10--10--------10--5------5--5----------|





e|-----------5---------5------------3----------3----------3-------3|
B|-----------------------------------------------------------------|
G|--------6---------6------------4----------4----------4--------4--|
D|-----------------------------------------------------------------|
A|-----------------------------------------------------------------|
E|-5--5-------5--5--------5--3-------3--3-------3--3-------3--3----|




e|-----------3-----------------------------------------------------|
B|-----------------------------------------------------------------|
G|--------4----------REPEAT X 2------------------------------------|
D|-----------------------------------------------------------------|
A|-----------------------------------------------------------------|
E|-3--3------------------------------------------------------------|


Tabbed from watching live video where the guitarist uses capo 3. 
But I removed the capo as it does not change the difficulty of the picking.

************************************
Tap to rate this tab
# A B C D E F G H I J K L M N O P Q R S T U V W X Y Z