Song name
# A B C D E F G H I J K L M N O P Q R S T U V W X Y Z

Hillsong United - Tell The World Live - I Heart Revolution tab

Tell The World (Live) - The I Heart Revolution With Hearts As One 
Hillsong United

     This is how we play it at my church. This is the live version 
listed in the title. The older version we used to play was similar, 
but this has the addition of the octaves in the verse. Fun version 
to play, and folks seem to dig it. 

*NOTE* There are a couple of ways to pay the riff. I like this version 
as being the simplest way to get the same voicing as the recording. 
Have fun! porkforest@gmail.com


[Intro] Bass walkdown (2x)
Lead Guitar
|---------------|---------------------------|
|-9---9---7-7-7-|-9---9---11----13----14----|
|-7b9-7b9-7-7-6-|-7b9-7b9--9b11-11b13-12b14-| (Repeat 2x)
|---------------|---------------------------|
|---------------|---------------------------|
|---------------|---------------------------|

|--------------|
|-16----18-----|
|-14b16-16b18--|
|--------------|
|--------------|
|--------------|

[Verse Riff Part A]
|----------------------------|-------------------------------|
|----------------------------|-------------------------------|
|-11-11-11-11-11-11-19-19-19-|-11-11-11-11-16-16-14-14-13-11-|
|--x--x--x--x--x--x--x--x--x-|--x--x--x--x--x--x--x--x--x--x-|
|--9--9--9--9--9--9-17-17-17-|--9--9--9--9-14-14-12-12-11--9-|
|----------------------------|-------------------------------|

[Verse Riff Part B]
|----------------------------|
|----------------------------|
|-13-13-13-11-10-10-11-13-13-|
|--x--x--x--x--x--x--x--x--x-|
|-11-11-11--9--7--7--9-11-11-|
|----------------------------|

[Verse 1]
F#m                                       D
Don't want to stand here and shout Your praise
F#                             D
And walk away and forget Your Name
F#                               D
I'll stand for you if it's all I do
F#                                   D
Cause there is none that compare to You
F#                                    D
Cause all I want in this lifetime is You
F#                                     D
And all i want in this whole world is you

[Chorus]
 A                   E       
Tell the world that Jesus lives
F#m                   D
Tell the world that, tell the world that
 A                      E
Tell the world that he died for them
F#m                     D
Tell the world that he lives again

[Verse 2]
No longer I but Christ in me
Cause it's the truth that set me free
How could this world be a better place?
But by thy mercy and by thy grace

[Bridge]
 A                  Bm                  F#m    D
C'mon, c'mon we'll tell the world about You
 A                  Bm                  F#m    D
C'mon, c'mon we'll tell the world about You

[Chorus]
Tell the world that Jesus lives
Tell the world that, tell the world that
Tell the world that he died for them
Tell the world that he lives again

[Bridge]
C'mon, c'mon we'll tell the world about You
Tell the world that
Tell the world that
C'mon, c'mon we'll tell the world about You
Tell the world that
Tell the world that
 D---------------------
About You
Tap to rate this tab
 
# A B C D E F G H I J K L M N O P Q R S T U V W X Y Z