Song name
# A B C D E F G H I J K L M N O P Q R S T U V W X Y Z

Hillsong United - Oceans tab

-------------------------------------------------------------------------------
			     OCEANS - Hillsong United
-------------------------------------------------------------------------------
Tabbed by: jaydmorales.com
E-mail: jaydmorales.com/contact

Tuning: Standard

Guitar 1 : Capo 3

Fret relevant to capo

Twice

e|----4-------4-------4-------6--------7-------7-------7--------7------------|
B|------0-------0-------0-------0--------0-------0-------0--------0----------|
G|---------------------------------------------------------------------------|
D|---------------------------------------------------------------------------|
A|---------------------------------------------------------------------------|
E|--4------44-----44--------66------77------77------77-------77--------------|

e|-----2------2-------2------2-------0-----0------0----|----2----|---0---------|
B|-------0------0-------0------0-------0-----0------0--|------0--|-----0-------|
G|-----------------------------------------------------|-first---|-second------|
D|-----------------------------------------------------|-ending--|-and third---|
A|-----------------------------------------------------|---------|--ending-----|
E|--22-----22------22-----22------00-----00-----00-----|-22------|-00----------|

"And I will call upon your name.. and You are mine"

e|---0-------0-------7------7--------2------2------2------2------------------|
B|-----0-------0-------0------0--------0------0------0------0----------------|
G|---------------------------------------------------------------------------|
D|---------------------------------------------------------------------------|
A|---------------------------------------------------------------------------|
E|-00-----00------77-----77-------22-----22-----22-----22--------------------|

Guitar 2 comes in. No Capo, Guitar 1 repeats intro stuff

e|---2---0--2~--2---0-2--------2---0-2~--2---0-2-------0---0----0-0--0------3-----3-3-----3-|
B|-----3----------3-------3------3---------3-----3-------2---2---2-2--2-------5-5-----5-5---|
G|-4-------------------------2-----------------------2--------------------4-----------------|
D|------------------------------------------------------------------------------------------|
A|------------------------------------------------------------------------------------------|
E|------------------------------------------------------------------------------------------|

Chorus:
G           D              A     G            D             A                    G
And I will call upon Your name   And keep my eyes above the waves   When oceans rise
              D              A                G         (A)     Bm  (A/C#)  D  A  Em
My soul will rest in your embrace  For I am Yours  and You are mine


Bridge:
Bm                           G
   Spirit lead me where my trust is without borders
           D                           A
   Let me walk upon the waters  Wherever You would call me
Bm                         G
   Take me deeper than my feet could ever wander
            D                                   A
   And my faith will be made stronger   In the presence of my Saviour      (x3)

G                            D
   Spirit lead me where my trust is without borders
            A                          Em
   Let me walk upon the waters  Wherever You would call me
G                          D
   Take me deeper than my feet could ever wander
            A                                   Em
   And my faith will be made stronger   In the presence of my Saviour

Bm                 A/C#      D
   Spirit lead me where my trust is without borders
           A                          Em
   Let me walk upon the waters  Wherever You would call me
Bm                 A/C#     D
   Take me deeper than my feet could ever wander
            A                                   Em
   And my faith will be made stronger   In the presence of my Saviour            (x2)


    If you struggle with a Bm, try this

e|--2---------------------------------------------------------------------------|
B|--3---------------------------------------------------------------------------|
G|--4---------------------------------------------------------------------------|
D|--4---------------------------------------------------------------------------|
A|------------------------------------------------------------------------------|
E|------------------------------------------------------------------------------|
Tap to rate this tab
# A B C D E F G H I J K L M N O P Q R S T U V W X Y Z