Song name
# A B C D E F G H I J K L M N O P Q R S T U V W X Y Z

Hillsong United - Tell The World That tab

-------------------------------------------------------------------------------
			     Tell The World That - Hillsong United
-------------------------------------------------------------------------------
Tabbed by: inhale_exhale

Note: All chords in this tab are regular power chords.

Tuning: Standard

e-----------------------------------------------------------------|
b-7--(x8)--3---(x4)--3---(x4)-7--(x8)--3---(x4)--3---(x4)--7------|
g-8b9------4b5------3b4------8b9------4b5-------3b4------8b9r-----|
d-----------------------------------------------------------------|
a-----------------------------------------------------------------|
e-----------------------------------------------------------------|

Verse (electric does not play)

Pre-Chorus.
*Play intro again or:

e------------------------------|
b------------------------------|
g--------14-14-11(12x)---------|
d-11-11------------------------|
a------------------------------|
e------------------------------|(x4)

Chorus:

A E
(A)Tell the world that (E)Jesus lives

F# D
(F#)Tell the world that, (D)tell the world that

A E
(A)Tell the world that he (E)Died for them

F# D
(F#)Tell the world that he (D)lives again

Intro

Verse 2

Pre-Chorus

Chorus
*Don't let the last chord ring

Bridge:
Build on chorus chords the third time the bridge is sang

Chorus

| r  ring
| b  bend
| /  slide up
| \  slide down
| h  hammer-on
| p  pull-off
| ~  vibrato
| +  harmonic
| x  Mute note
===============================================================================
Tap to rate this tab
# A B C D E F G H I J K L M N O P Q R S T U V W X Y Z