Song name
# A B C D E F G H I J K L M N O P Q R S T U V W X Y Z

Hillsong Young And Free - Wake tab

Tab By Seth Haberman

INTRO / VERSE 2 / ENDING

E|--------------------------------------------------|
B|--------------------------------------------------|
G|--2--4--4--2--4--4--7--7--7--0--0--0--0--0--0--0--|
D|--0--0--0--0--0--0--0--0--0--0--0--4--4--2--2--0--|
A|--------------------------------------------------|
E|--------------------------------------------------|

E|--------------------------------------------------|
B|--------------------------------------------------|
G|--2--4--4--2--4--4--7--7--7--0--0--0--0--0--0--0--|
D|--0--0--0--0--0--0--0--0--0--0--0--4--4--2--2--0--|
A|--------------------------------------------------|
E|--------------------------------------------------|

E|--------------------------------------------------|
B|--------------------------------------------------|
G|--2--4--4--2--4--4--7--7--7--0--0--0--0--0--0--0--|
D|--0--0--0--0--0--0--0--0--0--0--0--4--4--2--2--0--|
A|--------------------------------------------------|
E|--------------------------------------------------|

E|---------------------------------------------------|
B|---------------------------------------------------|
G|--2--4--4--2--4--4--7--7--7--9--9--11--11--12--12--|
D|--0--0--0--0--0--0--0--0--0--0--0--0---0---0---0---|
A|---------------------------------------------------|
E|---------------------------------------------------|

PRE-CHORUS

E|----------------------------------------------------------------------|
B|--15------15------15------15------15------15------13------12--13------|
G|------12------12------12------12------12------12------12---------------|
D|----------------------------------------------------------------------|
A|----------------------------------------------------------------------|
E|----------------------------------------------------------------------|

E|----------------------------------------------------------------------|
B|--15------15------15------15------15------15------13------12--13------|
G|------12------12------12------12------12------12------12---------------|
D|----------------------------------------------------------------------|
A|----------------------------------------------------------------------|
E|----------------------------------------------------------------------|

E|----------------------------------------------------------------------|
B|--15------15------15------15------15------15------13------12--13------|
G|------12------12------12------12------12------12------12---------------|
D|----------------------------------------------------------------------|
A|----------------------------------------------------------------------|
E|----------------------------------------------------------------------|

E|----------------------------------------------------------------------|
B|--15------15------15------15------15------15------15------15----------|
G|------12------12------12------12------12------12------12------12-------|
D|----------------------------------------------------------------------|
A|----------------------------------------------------------------------|
E|----------------------------------------------------------------------|

CHORUS

E|--------------------------------------------------|
B|--5--5--5--5--5--5--5--5--7--7--7--7--7--7--7--7--|
G|--5--5--5--5--5--5--5--5--7--7--7--7--7--7--7--7--|
D|--------------------------------------------------|
A|--------------------------------------------------|
E|--------------------------------------------------|

E|----------------------------------------------------------|
B|--8--8--8--8--8--8--8--8--12--12--12--12--12--12--12--12---|
G|--7--7--7--7--7--7--7--7--12--12--12--12--12--12--12--12---|
D|----------------------------------------------------------|
A|----------------------------------------------------------|
E|----------------------------------------------------------|

E|--------------------------------------------------|
B|--5--5--5--5--5--5--5--5--7--7--7--7--7--7--7--7--|
G|--5--5--5--5--5--5--5--5--7--7--7--7--7--7--7--7--|
D|--------------------------------------------------|
A|--------------------------------------------------|
E|--------------------------------------------------|

E|----------------------------------------------------------|
B|--10--10--10--10--10--10--10--10--8--8--8--8--8--8--8--8--|
G|--7---7---7---7---7---7---7---7---7--7--7--7--7--7--7--7--|
D|----------------------------------------------------------|
A|----------------------------------------------------------|
E|----------------------------------------------------------|
Tap to rate this tab
 
# A B C D E F G H I J K L M N O P Q R S T U V W X Y Z