Song name
# A B C D E F G H I J K L M N O P Q R S T U V W X Y Z

Hillsong Young And Free - Sinking Deep tab

This is in Capo 2 G which is A. I'll be showing you the G shape AND A shape tabs. Because why not? Choices! =)

-------------------------------------------------------------------------------
Sinking Deep - Hillsong Young and Free
-------------------------------------------------------------------------------
Tabbed by: gohsam2001

Tuning: Standard

G Key shape

    G (x2)                                     
e|---------------------------------|
B|------0----0----0----------------|
G|----0----0----0----------0-------|
D|---------------------4-----------|    
A|---------------------------------|
E|-3-------------------------------|

    C                                 C
e|------------------------------------------------------------------|
B|------3----3----3---------0-------------3----3----3-----1---0-----|
G|----0----0----0-------2---------------0----0----0---2-------------|
D|------------------------------------------------------------------|    
A|-3---------------------------------3------------------------------|
E|------------------------------------------------------------------|


A Key Shape

    A (x2)                                     
e|---------------------------------|
B|------2----2----2----------------|
G|----2----2----2------1---2-------|
D|---------------------------------|    
A|-0-------------------------------|
E|---------------------------------|

    D                                 D
e|------0----0----0-----------------------0----0----0--------------|
B|----------------------0---2-------------------------0---3---2----|
G|----2----2----2-----------------------2----2----2----------------|
D|--0--------------------------------0-----------------------------|    
A|-----------------------------------------------------------------|
E|-----------------------------------------------------------------|

-----------------------------------------------------------------------------

Well, this is pretty much all there is to it. I hope someone finds this helpful. Be blessed. =)
Tap to rate this tab
# A B C D E F G H I J K L M N O P Q R S T U V W X Y Z