Guitaretab - guitar tabs
Song name
# A B C D E F G H I J K L M N O P Q R S T U V W X Y Z

Hillsong - With Everythign tab

With Everything by Joel Houston			Key: B

Intro:
    B                                      F#
e|------------------------------------------------------|
B|-----------------------------------------------2---2--|
G|--------8---8--------8---8--------8---8------3---3----|
D|------9---9--------9---9--------9---9------4----------|
A|----9------------9------------9-----------------------|
E|--7------------7------------7------------2------------|

    G#m                                    Esus2
e|------------------------------------------------------|
B|--------4---4--------4---4--------4---4--------7---7--|
G|------4---4--------4---4--------4---4--------9---9----|
D|----6------------6------------6------------9----------|
A|-----------------------------------------7------------|
E|--4------------4------------4-------------------------|

    B                                      F#
e|------------------------------------------------------|
B|-----------------------------------------------2---2--|
G|--------8---8--------8---8--------8---8------3---3----|
D|------9---9--------9---9--------9---9------4----------|
A|----9------------9------------9-----------------------|
E|--7------------7------------7------------2------------|

    G#m                                    Esus2
e|------------------------------------------------------|
B|--------4---4--------4---4--------4---4--------7---7--|
G|------4---4--------4---4--------4---4--------9---9----|
D|----6------------6------------6------------9----------|
A|-----------------------------------------7------------|
E|--4------------4------------4-------------------------|

Verse:
    B                                      F#
e|------------------------------------------------------|
B|-----------------------------------------------2---2--|
G|--------8---8--------8---8--------8---8------3---3----|
D|------9---9--------9---9--------9---9------4----------|
A|----9------------9------------9-----------------------|
E|--7------------7------------7------------2------------|
[ Tab from: http://www.guitaretab.com/h/hillsong/116916.html ]
    G#m                                    Esus2
e|------------------------------------------------------|
B|--------4---4--------4---4--------4---4--------7---7--|
G|------4---4--------4---4--------4---4--------9---9----|
D|----6------------6------------6------------9----------|
A|-----------------------------------------7------------|
E|--4------------4------------4-------------------------|

    B                                      F#
e|------------------------------------------------------|
B|-----------------------------------------------2---2--|
G|--------8---8--------8---8--------8---8------3---3----|
D|------9---9--------9---9--------9---9------4----------|
A|----9------------9------------9-----------------------|
E|--7------------7------------7------------2------------|

    G#m                                    Esus2
e|------------------------------------------------------|
B|--------4---4--------4---4--------4---4--------7---7--|
G|------4---4--------4---4--------4---4--------9---9----|
D|----6------------6------------6------------9----------|
A|-----------------------------------------7------------|
E|--4------------4------------4-------------------------|


Pre Chorus:
e|--------------------------------6----------------|
B|--12--11--9--7--9--5-3--44/7-------------------|
G|-------------------------------------------------|
D|-------------------------------------------------|
A|-------------------------------------------------|
E|-------------------------------------------------|

e|-------------------------------------------------|
B|--12--11--9--7--9--5-3--4-2--------------------|
G|------------------------------4------------------|
D|-------------------------------------------------|
A|-------------------------------------------------|
E|-------------------------------------------------|

Chorus:
E       G#m     F#
Jesus our God
          G#m    E          F#
Great and mighty to be praised
B
God of all days
F#          G#m
Glorious in all of Your ways
       E           B
Oh the majesty the wonder and grace
       F#            G#m
In the light of Your Name

    E  G#m   F#  G#m   E    F#5    B    F#  G#m   E    B    F#  G#m
e|--0----4----2----4----0----------0----2----4----0----7----2----4--|
B|--0----4----2----4----0----------0----2----4----0----7----2----4--|
G|--9----4----3----4----9///11-----8----3----4----9----8----3----4--|
D|--9----6----4----6----9///11-----9----4----6----9----9----4----6--|
A|--7----6----4----6----7///9------9----4----6----7----9----4----6--|
E|-------4----2----4---------------7----2----4---------7----2----4--|


Sorry I haven't got the rest of the song done..
I'm not sure if that Pre Chorus riff is totally correct, but it works, and I've seen one 
the HIllsong
guitarists play it so meh... it's pretty sweet!!!

God Bless:)
Related for With Everythign tab