Song name
# A B C D E F G H I J K L M N O P Q R S T U V W X Y Z

Hillsong - Run tab

Hope You Like God Bless......

Intro
-4s6-6-6-4-6-7-6-6-6----4-4------------|
---------------------7-7----6-6--------|
---------------------------------------|
---------------------------------------|
---------------------------------------|
---------------------------------------|

-4s6-6-6-4-6-7-6-6-6-------9-9-9-9-----|
---------------------4s7-7-------------|
---------------------------------------|
---------------------------------------|
---------------------------------------|
---------------------------------------|

Verse
Power chords: D#m B F# C#

With mutes and dotted 8th note delay
--------------|
-11--12---9---|
-11--11---11--|
--------------|
--------------|
--------------|


Prechorus
B D#m C# B

With palm mutes and dotted 8th note delay
-9h11-----------9h11---------------------|
---------9h11-----------9h11---9h11p9----|
------11------11-----11------11-------11-|
-----------------------------------------|
-----------------------------------------|
-----------------------------------------|

Chorus
Dotted 8th note delay, x2
---------------------------------------|
-----7-7-6-6-----------6---------------|
-6-6---------6-6-8-8-8---8-8-6-6-------|
---------------------------------------|
---------------------------------------|
---------------------------------------|

------------------|
-----7-7-6-6------|
-6-6---------6-6--| (x2)
------------------|
------------------|
------------------|

---------------------------------------|
-----7-7-6-6-----------6---------------|
-6-6---------6-6-8-8-8---8-8-6-6-------|
---------------------------------------|
---------------------------------------|
---------------------------------------|
Tap to rate this tab
 
# A B C D E F G H I J K L M N O P Q R S T U V W X Y Z