Song name
# A B C D E F G H I J K L M N O P Q R S T U V W X Y Z

Hillsong - Mighty To Save tab

Help us improve GuitareTab! Take a short survey!
-------------------------------------------------------------------------------
			   mighty to save - Hillsong
-------------------------------------------------------------------------------

Tabbed By : billynuklz
e-mail: 

Tuning: Standard

  come in on eighth 1/4 count
    (x2)
G|---------------------------------------------------------------------------|
D|---------------------------------------------------------------------------|
A|5555555555555555-----------------------------------------------------------|
E|----------------555555555555555522222222222222220000000000000000-----------|
    (x2)
G|---------------------------------------------------------------------------|
D|---------------------------------------------------------------------------|
A|5--------------------------------------------------------------------------|
E|----------------5---------------2---------------0--------------------------|
    (x1)
G|---------------------------------------------------------------------------|
D|---------------------------------------------------------------------------|
A|5-5-5-5-7-7-7-7-5-5-5-5-7-7-7-7--------------------------------------------|
E|---------------------------------------------------------------------------|
    (x1)
G|---------------------------------------------------------------------------|
D|---------------------------------------------------------------------------|
A|0--hold open for eight 1/4 counts------------------------------------------|
E|---------------------------------------------------------------------------|
    (x3)
G|---------------------------------------------------------------------------|
D|---------------------------------------------------------------------------|
A|5555555555555555-----------------------------------------------------------|
E|----------------555555555555555522222222222222220000000000000000-----------|
    (x1)
G|---------------------------------------------------------------------------|
D|---------------------------------------------------------------------------|
A|5-5-5-5-7-7-7-7-5-5-5-5-7-7-7-7--------------------------------------------|
E|---------------------------------------------------------------------------|
    (x4)
G|---------------------------------------------------------------------------|
D|---------------------------------------------------------------------------|
A|-------------------------------5-5-5-5-0-0-0-0-----------------------------|
E|5-5-5-5-5-5-5-5-0-0-0-0-0-0-0-0---------------2-2-2-2-0-0-0-0--------------|
    (x6)
G|---------------------------------------------------------------------------|
D|---------------------------------------------------------------------------|
A|5-5-5-5-0-0-0-0-7-7-7-7-7-7-7h9--------------------------------------------|
E|---------------------------------------------------------------------------|
    (x1)
G|---------------------------------------------------------------------------|
D|---------------------------------------------------------------------------|
A|0---hold it for a while----------------------------------------------------|
E|------------------------------------------------2-2-2-2-0-0-0-0------------|
    (x2)
G|---------------------------------------------------------------------------|
D|---------------------------------------------------------------------------|
A|--------------------------------5-5-5-5-0-0-0-0----------------------------|
E|5-5-5-5-5-5-5-5-0-0-0-0-0-0-0-0-----------------2-2-2-2-0-0-0-0------------|
    (x4)
G|---------------------------------------------------------------------------|
D|---------------------------------------------------------------------------|
A|5-5-5-5-0-0-0-0-7-7-7-7-7-7-7h9--------------------------------------------|
E|---------------------------------------------------------------------------|
    Stay still for a bit.
G|---------------------------------------------------------------------------|
D|---------------------------------------------------------------------------|
A|---------------------------------------------------------------------------|
E|---------------------------------------------------------------------------|
    (x4)
G|---------------------------------------------------------------------------|
D|---------------------------------------------------------------------------|
A|5-5-5-5-0-0-0-0-7-7-7-7-7-7-7h9--------------------------------------------|
E|---------------------------------------------------------------------------|




| /  slide up
| \  slide down
| h  hammer-on
| p  pull-off
| ~  vibrato
| +  harmonic
| x  Mute note
==================================================
Related for Mighty To Save tab