Song name
# A B C D E F G H I J K L M N O P Q R S T U V W X Y Z

Hillsong - King Of Majesty tab

[Verse]
-play chords


[Prechorus]
E|-------|                         |xxxxxxxxxxxx|
B|-------|                         |xxxxxxxxxxxx|
G|-------|                         |-9-99-8s9-9-|
D|---8-9-|                         |xxxxxxxxxxxx|
A|-9-----| (palm mute)             |-7-77-6s7-7-|
E|-------| repeat then at the end  |------------|


[Chorus]
Guitar 1
-play B G# F# E B E G# E


Guitar 2
E|-------------------------------|
B|-------------------------------|
G|-6s8-8-8-8-6-4-6s8-8-8-8-6-4-4-|
D|-------------------------------|
A|-------------------------------|
E|-------------------------------|


[Solo]
E|-------------------------------------------------------------|
B|-------------------------------12-12h14-12-14s16-16-14p12h14-|
G|---11--------------------11h13-------------------------------|
D|-11-----11p9h11---11--13-------------------------------------|
A|-------------------------------------------------------------|
E|-------------------------------------------------------------|


E|-7-6-----------------|
B|-----7h9p7-----------|
G|-----------8-6-------|
D|---------------9-8---|
A|-------------------9-|
E|---------------------|
Tap to rate this tab
# A B C D E F G H I J K L M N O P Q R S T U V W X Y Z