Song name
# A B C D E F G H I J K L M N O P Q R S T U V W X Y Z

Hillsong - Still tab

[Trumpet Part Converted to Guitar Tab]
E|----------------------------------------------------|
B|----------------------------------------------------|
G|----------7--7---------------------------9-7--------|
D|-7---10--9----10-10---7-10-7-10-7--7-10-----10--s12-|
A|----------------------------------------------------|
E|----------------------------------------------------|


E|-------------------------------------------------------------|
B|-------------------------------------------------------------|
G|--------12---14----12--14---14-12-14-12---------------12--14-|
D|-12-14----------14-----------------------14-----12h14--------|
A|-------------------------------------------------------------|
E|-------------------------------------------------------------|


E|------------------|
B|-13-12-12---15----|
G|---------------12-|
D|------------------|
A|------------------|
E|------------------|


[Electric Guitar Part]
E|---------------------------------------15-----------------|
B|---13---17---15-13-17---15--13-13h15h17--17p15p13---------|
G|-14--14------------------------------------------14p12h14-|
D|----------------------------------------------------------|
A|----------------------------------------------------------|
E|----------------------------------------------------------|


E|--------------------------------------------------------------|
B|---------------------13--12--------------------------12-13----|
G|---------------12-----------14-12-12h14---------14---------14-|
D|-12h14p12-14-----12---------------------14-12-----------------|
A|--------------------------------------------------------------|
E|--------------------------------------------------------------|


E|-----------------------15-15-15-15-|
B|-13--13h15-17p15-15h17-------------|
G|-----------------------------------|
D|-----------------------------------|
A|-----------------------------------|
E|-----------------------------------|


When It Calms Down
E|---------------------------------------------|
B|----------------13-12------------------------|
G|----------12-14-------12---------------------|
D|-12-14-15----------------12-14-----12--10--9-|
A|---------------------------------------------|
E|---------------------------------------------|


E|---------------------------|
B|-17---13-------------------|
G|-----------14--------12-12-|
D|----------------14---------|
A|---------------------------|
E|---------------------------|
Tap to rate this tab
 
# A B C D E F G H I J K L M N O P Q R S T U V W X Y Z