Song name
# A B C D E F G H I J K L M N O P Q R S T U V W X Y Z

Hillsong - Heaven tab

Intro.
---------------- ------------------------ -------------------------------|
---9-10-12---- ------------------------ ---------------------------------|
---------------- --b11-9------b11--9-9 ----------------------------------|
---------------- ---------9h11---------- 9-9h11-9------------------------|
---------------- ------------------------- ----------11-9h11-9-7h9-7-----|
---------------- ------------------------- ------------------------------|

-------------12---14-12-12h14-12--------|
--12-12h14---14-------------------------|
----------------------------------------|
----------------------------------------|
----------------------------------------|
----------------------------------------|

--------------- ----------------------------------|
-12s14------- ------------------------------------|
--------11-9-- -----------------------------------|
--------------- -9-9h11-9-------------------------|
--------------- ------------11-9h11-9-7h9-7-------|
--------------- ----------------------------------|
Verse.
Bless my life..your most amazing grace.
-------------------------------|
-12h14-------------------------|
-12----11h14h9---9h11-9--------|
------------------11-----------|
-------------------------------|
-------------------------------|
Fill my heart...mend my broken soul.
---------------------------|
---------------------------|
----------9h11-9---9-9-----|
-9-9h11---------11---------|
---------------------------|
---------------------------|
Ref.
I offer my life to you Lord.
-------------------- ---------------------|
---b12------------- -9-10-12-12-12--------|
-9------------------ ---------------------|
-------------------- ---------------------|
-------------------- ---------------------|
-------------------- ---------------------|
Chorus.
And I give my all.
---------------------------- ---------------------------|
-10-9-10-9-10-9-10-9---- -10-9-10-9-10s12-12------------|
--------------------------9- ---------------------------|
---------------------------- ---------------------------|
---------------------------- ---------------------------|
---------------------------- ---------------------------|

---------------------------- ---------------------------|
-10-9-10-9-10-9-10-9---- -10-9-10-9-10s12-12------------|
--------------------------9- ---------------------------|
---------------------------- ---------------------------|
---------------------------- ---------------------------|
---------------------------- ---------------------------|

------------------ ---------------------------|
-12-12-12-12-- --9-10-9-10-10s12-12-----------|
---9---9---9---- -----------------------------|
----------------- ----------------------------|
----------------- ----------------------------|
----------------- ----------------------------|
Till the end of my days I give my all..
Intro2.
------------ ---------------------- -----------12-11-----------|
-------9-9- -10-9---------------- -9-10-12--------12-12--------|
------------ ------11-9-b11------ -----------------------------|
-7s9------- ----------------9-9-9- ----------------------------|
------------ ----------------------- --------------------------|
------------ ----------------------- --------------------------|

--------------------------|
--------------------------|
-9s13-11-9---9-11-11------|
-9s11------11-------------|
--------------------------|
--------------------------|
Verse 2.
You give your all.... and now I am free...
-------------------------------|
-12h14-------------------------|
-12----11h14h9---9h11-9--------|
------------------11-----------|
-------------------------------|
-------------------------------|
You're the only reason.. Lord mold me, and use me...
-------------------------------11-12----------------|
-------------9-10-9-10-9s12------12-10-9-10---------|
-------9-11-----------------------------------------|
--9-11----------------------------------------------|
----------------------------------------------------|
----------------------------------------------------|
Tap to rate this tab
# A B C D E F G H I J K L M N O P Q R S T U V W X Y Z