Song name
# A B C D E F G H I J K L M N O P Q R S T U V W X Y Z

Hillsong - This Is Our God tab

This is our God
Hillsong
Album:This is our God
(deguzman_aga07@yahoo.com)

      Key of E

        / = slide up
        \ = slide down
        ~ = let it ring
        h = hammer on


Intro: E-G#m-C#m-A
e|-----------------------------------------------------------------------------------|
b|-----------------------------------------------------------------------------------|
g|-----------------------------------------------------------------------------------|
d|-----9-9-9-9-9-9-9-9-9-9-9-9-9-9-9-9-9-9-9-9-9-2-2-2-2-2-2-2-2-2-2-2-2-2-2-4-4-----|
a|----7-7-7-7-7-7-7-7/11-11-11-11-11-11-11-11\4-4-4-4-4-4-4-4\0-0-0-0-0-0-0-0--------|
e|-----------------------------------------------------------------------------------|
*do this 2x
Verse: (same in intro)

Pre-chorus: B-C#m-A-F#m


Instrumental: (Overdrive w/ Delay)

e|-------12~----12~---11~---11~--9~---9~----11-12-------12----12---|
b|----12-----12-----12----12-----9----9----------------9h12-----9--|
g|-----------------------------------------------------------------|
d|-----------------------------------------------------------------|
a|-----------------------------------------------------------------|
e|-----------------------------------------------------------------|


Bridge: E-B/Eb-F#m-C#m-A-B
God Bless!
Tap to rate this tab
 
# A B C D E F G H I J K L M N O P Q R S T U V W X Y Z