Song name
# A B C D E F G H I J K L M N O P Q R S T U V W X Y Z

Hillsong - Time Has Come tab

Time has come
HIllsong United

Hi,
This isn't 100% right,
you must do this along with the music to do some adjutments.
I got this  from their 2nd edition
its intro i think is about 2 minutes,


If u have questions,
email me: gndtan@yahoo.com.ph
just put `UG` or `Ultimate Guitar` on your subject. 


key:    A
tuning: Standard


Intro:
-----------------------------------------------------|
B---10-10-10-10-10-10-10-10-10-10-10-10-10-10-10-----|
G----------------------------------------------------|
D----------------------------------------------------|
A----------------------------------------------------|
E----------------------------------------------------|

e----------------------------------------------------|
B---10-10-12-14----9-9-10-12----7-7-10-9-------------|
G----------------------------------------9-----------|
D----------------------------------------------------|x2
A----------------------------------------------------|
E----------------------------------------------------|

e----------------------------------------------------|
B-----10-9-10---10-9-10---10-9-10--------------------|
G---7---------9---------7----------------------------|
D----------------------------------------------------|
A----------------------------------------------------|
E----------------------------------------------------|


e----------------------------------------------------|
B---12-12-12-14-10-10-10-9-9-12-12-10-10-10-9-10-10--|
G----------------------------------------------------|
D----------------------------------------------------|
A----------------------------------------------------|
E----------------------------------------------------|

e----------------------------------------------------|
B---10-10-10-10-10-10-10-10-10-10-10-10-10-10-10-----|
G----------------------------------------------------|
D----------------------------------------------------|
A----------------------------------------------------|
E----------------------------------------------------|
all the way....



stanza: 
to be played twice
e----------------------------------------------------|
B---10-10-10-10-10-10-10-10-10-10-10-10-10-10-10-----|
G----------------------------------------------------|
D----------------------------------------------------|
A----------------------------------------------------|
E----------------------------------------------------|
        Found love beyond all reason, You gave Your life Your all for

e----------9-9---------9-9-------9-9-----------------|
B----7-7-7--7----7-7-7--7----------------------------|
G---------------------------9-9-9-9------------------|
D----------------------------------------------------|
A----------------------------------------------------|
E----------------------------------------------------|
  me                      And called me Yours 

e----------9-9---------------------------------------|
B----------------------10-10-12-10-10-10-10----------|
G-----9-9-9-9----------------------------------------|
D----------------------------------------------------|
A----------------------------------------------------|
E----------------------------------------------------|
forever


pre-chorus: 
to be played twice
e----------------------------------------------------|
B---12-12-12-14-14-14-16-16-16-17--------------------|
G----------------------------------------------------|
D----------------------------------------------------|
A----------------------------------------------------|
E----------------------------------------------------|
The time has come To stand for all 

e----------------------------------------------------|
B---12-12-12-14-14-14-16-16-16-17--------------------|x2
G----------------------------------------------------|
D----------------------------------------------------|
A----------------------------------------------------|
E----------------------------------------------------|
 we believe in


chorus:
do the chords
A-F#m-D-A
A-F#m-D-A


2nd stanza:
e----------------------------------------------------|
B---10-10-10-10-12-12-12-14-14-14-10-10--------------|
G----------------------------------------------------|
D----------------------------------------------------|
A----------------------------------------------------|
E----------------------------------------------------|


e----------9-9---------9-9-------9-9-----------------|
B----7-7-7--7----7-7-7--7----------------------------|
G---------------------------9-9-9-9------------------|
D----------------------------------------------------|
A----------------------------------------------------|
E----------------------------------------------------|
  me                      And called me Yours 

e----------9-9---------------------------------------|
B----------------------10-10-12-10-10-10-10----------|
G-----9-9-9-9----------------------------------------|
D----------------------------------------------------|
A----------------------------------------------------|
E----------------------------------------------------|
forever


proceed to prechorus, 
then chorus before going to bridge


the base will solo before this part

bridge:
e----------------------------------------------------|
B-16-16-16-16-16-16-16-17-17-17-17-17-17-------------|
G----------------------------------------------------|
D----------------------------------------------------|
A----------------------------------------------------|
E----------------------------------------------------|
  All we are is Yours   And all we're living for
      
e----------------------------------------------------|
B-16-16-16-16-16-16-16-------------------------------|
G----------------------16-16-16-16-16-15-15-15-15-15-|
D----------------------------------------------------|
A----------------------------------------------------|
E----------------------------------------------------|
Is all You are         Is all that You are           Lord


repeat chorus

fin

dojan2
Tap to rate this tab
# A B C D E F G H I J K L M N O P Q R S T U V W X Y Z